ISO-10303-21;
HEADER;
/* Generated by software containing ST-Developer
 * from STEP Tools, Inc. (www.steptools.com) 
 */

FILE_DESCRIPTION(
/* description */ (''),
/* implementation_level */ '2;1');

FILE_NAME(
/* name */ 
'C:/Users/NexxCat/Documents/GitHub/lab.ratrig.com/cad/HW1309WC-Ball Be
aring - F688ZZ.step',
/* time_stamp */ '2022-09-16T14:56:28+01:00',
/* author */ (''),
/* organization */ (''),
/* preprocessor_version */ 'ST-DEVELOPER v19',
/* originating_system */ 'Autodesk Translation Framework v11.7.0.108',
/* authorisation */ '');

FILE_SCHEMA (('AUTOMOTIVE_DESIGN { 1 0 10303 214 3 1 1 }'));
ENDSEC;

DATA;
#10=MECHANICAL_DESIGN_GEOMETRIC_PRESENTATION_REPRESENTATION('',(#14,#15,
#16),#577);
#11=SHAPE_REPRESENTATION_RELATIONSHIP('SRR','None',#584,#12);
#12=ADVANCED_BREP_SHAPE_REPRESENTATION('',(#13),#576);
#13=MANIFOLD_SOLID_BREP('Body1',#318);
#14=STYLED_ITEM('',(#594),#316);
#15=STYLED_ITEM('',(#594),#317);
#16=STYLED_ITEM('',(#593),#13);
#17=FACE_BOUND('',#64,.T.);
#18=FACE_BOUND('',#67,.T.);
#19=FACE_BOUND('',#72,.T.);
#20=FACE_BOUND('',#78,.T.);
#21=FACE_BOUND('',#83,.T.);
#22=FACE_BOUND('',#88,.T.);
#23=FACE_BOUND('',#90,.T.);
#24=PLANE('',#337);
#25=PLANE('',#341);
#26=PLANE('',#350);
#27=PLANE('',#360);
#28=PLANE('',#369);
#29=PLANE('',#376);
#30=PLANE('',#377);
#31=CYLINDRICAL_SURFACE('',#335,9.);
#32=CYLINDRICAL_SURFACE('',#345,7.25);
#33=CYLINDRICAL_SURFACE('',#352,4.);
#34=CYLINDRICAL_SURFACE('',#356,4.75);
#35=CYLINDRICAL_SURFACE('',#364,4.75);
#36=CYLINDRICAL_SURFACE('',#371,7.25);
#37=CYLINDRICAL_SURFACE('',#375,8.);
#38=FACE_OUTER_BOUND('',#61,.T.);
#39=FACE_OUTER_BOUND('',#62,.T.);
#40=FACE_OUTER_BOUND('',#63,.T.);
#41=FACE_OUTER_BOUND('',#65,.T.);
#42=FACE_OUTER_BOUND('',#66,.T.);
#43=FACE_OUTER_BOUND('',#68,.T.);
#44=FACE_OUTER_BOUND('',#69,.T.);
#45=FACE_OUTER_BOUND('',#70,.T.);
#46=FACE_OUTER_BOUND('',#71,.T.);
#47=FACE_OUTER_BOUND('',#73,.T.);
#48=FACE_OUTER_BOUND('',#74,.T.);
#49=FACE_OUTER_BOUND('',#75,.T.);
#50=FACE_OUTER_BOUND('',#76,.T.);
#51=FACE_OUTER_BOUND('',#77,.T.);
#52=FACE_OUTER_BOUND('',#79,.T.);
#53=FACE_OUTER_BOUND('',#80,.T.);
#54=FACE_OUTER_BOUND('',#81,.T.);
#55=FACE_OUTER_BOUND('',#82,.T.);
#56=FACE_OUTER_BOUND('',#84,.T.);
#57=FACE_OUTER_BOUND('',#85,.T.);
#58=FACE_OUTER_BOUND('',#86,.T.);
#59=FACE_OUTER_BOUND('',#87,.T.);
#60=FACE_OUTER_BOUND('',#89,.T.);
#61=EDGE_LOOP('',(#208,#209,#210,#211));
#62=EDGE_LOOP('',(#212,#213,#214,#215));
#63=EDGE_LOOP('',(#216));
#64=EDGE_LOOP('',(#217));
#65=EDGE_LOOP('',(#218,#219,#220,#221));
#66=EDGE_LOOP('',(#222));
#67=EDGE_LOOP('',(#223));
#68=EDGE_LOOP('',(#224,#225,#226,#227));
#69=EDGE_LOOP('',(#228,#229,#230,#231));
#70=EDGE_LOOP('',(#232,#233,#234,#235));
#71=EDGE_LOOP('',(#236));
#72=EDGE_LOOP('',(#237));
#73=EDGE_LOOP('',(#238,#239,#240,#241));
#74=EDGE_LOOP('',(#242,#243,#244,#245));
#75=EDGE_LOOP('',(#246,#247,#248,#249));
#76=EDGE_LOOP('',(#250,#251,#252,#253));
#77=EDGE_LOOP('',(#254));
#78=EDGE_LOOP('',(#255));
#79=EDGE_LOOP('',(#256,#257,#258,#259));
#80=EDGE_LOOP('',(#260,#261,#262,#263));
#81=EDGE_LOOP('',(#264,#265,#266,#267));
#82=EDGE_LOOP('',(#268));
#83=EDGE_LOOP('',(#269));
#84=EDGE_LOOP('',(#270,#271,#272,#273));
#85=EDGE_LOOP('',(#274,#275,#276,#277));
#86=EDGE_LOOP('',(#278,#279,#280,#281));
#87=EDGE_LOOP('',(#282));
#88=EDGE_LOOP('',(#283));
#89=EDGE_LOOP('',(#284));
#90=EDGE_LOOP('',(#285));
#91=LINE('',#493,#107);
#92=LINE('',#497,#108);
#93=LINE('',#504,#109);
#94=LINE('',#511,#110);
#95=LINE('',#516,#111);
#96=LINE('',#521,#112);
#97=LINE('',#529,#113);
#98=LINE('',#532,#114);
#99=LINE('',#537,#115);
#100=LINE('',#541,#116);
#101=LINE('',#547,#117);
#102=LINE('',#551,#118);
#103=LINE('',#557,#119);
#104=LINE('',#564,#120);
#105=LINE('',#568,#121);
#106=LINE('',#571,#122);
#107=VECTOR('',#384,8.9375);
#108=VECTOR('',#389,9.);
#109=VECTOR('',#398,8.9375);
#110=VECTOR('',#407,7.3125);
#111=VECTOR('',#414,7.25);
#112=VECTOR('',#419,4.0625);
#113=VECTOR('',#430,4.);
#114=VECTOR('',#433,4.6875);
#115=VECTOR('',#440,4.75);
#116=VECTOR('',#445,4.0625);
#117=VECTOR('',#452,4.6875);
#118=VECTOR('',#457,4.75);
#119=VECTOR('',#464,7.3125);
#120=VECTOR('',#473,7.25);
#121=VECTOR('',#478,7.9375);
#122=VECTOR('',#483,8.);
#123=CIRCLE('',#333,8.875);
#124=CIRCLE('',#334,9.);
#125=CIRCLE('',#336,9.);
#126=CIRCLE('',#338,8.);
#127=CIRCLE('',#340,8.875);
#128=CIRCLE('',#342,7.375);
#129=CIRCLE('',#344,7.25);
#130=CIRCLE('',#346,7.25);
#131=CIRCLE('',#348,4.125);
#132=CIRCLE('',#349,4.);
#133=CIRCLE('',#351,4.625);
#134=CIRCLE('',#353,4.);
#135=CIRCLE('',#355,4.75);
#136=CIRCLE('',#357,4.75);
#137=CIRCLE('',#359,4.125);
#138=CIRCLE('',#361,4.625);
#139=CIRCLE('',#363,4.75);
#140=CIRCLE('',#365,4.75);
#141=CIRCLE('',#367,7.375);
#142=CIRCLE('',#368,7.25);
#143=CIRCLE('',#370,7.875);
#144=CIRCLE('',#372,7.25);
#145=CIRCLE('',#374,8.);
#146=VERTEX_POINT('',#490);
#147=VERTEX_POINT('',#492);
#148=VERTEX_POINT('',#496);
#149=VERTEX_POINT('',#500);
#150=VERTEX_POINT('',#503);
#151=VERTEX_POINT('',#507);
#152=VERTEX_POINT('',#510);
#153=VERTEX_POINT('',#514);
#154=VERTEX_POINT('',#518);
#155=VERTEX_POINT('',#520);
#156=VERTEX_POINT('',#524);
#157=VERTEX_POINT('',#527);
#158=VERTEX_POINT('',#531);
#159=VERTEX_POINT('',#535);
#160=VERTEX_POINT('',#539);
#161=VERTEX_POINT('',#543);
#162=VERTEX_POINT('',#546);
#163=VERTEX_POINT('',#550);
#164=VERTEX_POINT('',#554);
#165=VERTEX_POINT('',#556);
#166=VERTEX_POINT('',#560);
#167=VERTEX_POINT('',#563);
#168=VERTEX_POINT('',#567);
#169=EDGE_CURVE('',#146,#146,#123,.T.);
#170=EDGE_CURVE('',#146,#147,#91,.T.);
#171=EDGE_CURVE('',#147,#147,#124,.T.);
#172=EDGE_CURVE('',#147,#148,#92,.T.);
#173=EDGE_CURVE('',#148,#148,#125,.T.);
#174=EDGE_CURVE('',#149,#149,#126,.T.);
#175=EDGE_CURVE('',#148,#150,#93,.T.);
#176=EDGE_CURVE('',#150,#150,#127,.T.);
#177=EDGE_CURVE('',#151,#151,#128,.T.);
#178=EDGE_CURVE('',#151,#152,#94,.T.);
#179=EDGE_CURVE('',#152,#152,#129,.T.);
#180=EDGE_CURVE('',#153,#153,#130,.T.);
#181=EDGE_CURVE('',#153,#152,#95,.T.);
#182=EDGE_CURVE('',#154,#154,#131,.T.);
#183=EDGE_CURVE('',#154,#155,#96,.T.);
#184=EDGE_CURVE('',#155,#155,#132,.T.);
#185=EDGE_CURVE('',#156,#156,#133,.T.);
#186=EDGE_CURVE('',#157,#157,#134,.T.);
#187=EDGE_CURVE('',#157,#155,#97,.T.);
#188=EDGE_CURVE('',#156,#158,#98,.T.);
#189=EDGE_CURVE('',#158,#158,#135,.T.);
#190=EDGE_CURVE('',#159,#159,#136,.T.);
#191=EDGE_CURVE('',#159,#158,#99,.T.);
#192=EDGE_CURVE('',#160,#160,#137,.T.);
#193=EDGE_CURVE('',#160,#157,#100,.T.);
#194=EDGE_CURVE('',#161,#161,#138,.T.);
#195=EDGE_CURVE('',#161,#162,#101,.T.);
#196=EDGE_CURVE('',#162,#162,#139,.T.);
#197=EDGE_CURVE('',#162,#163,#102,.T.);
#198=EDGE_CURVE('',#163,#163,#140,.T.);
#199=EDGE_CURVE('',#164,#164,#141,.T.);
#200=EDGE_CURVE('',#164,#165,#103,.T.);
#201=EDGE_CURVE('',#165,#165,#142,.T.);
#202=EDGE_CURVE('',#166,#166,#143,.T.);
#203=EDGE_CURVE('',#165,#167,#104,.T.);
#204=EDGE_CURVE('',#167,#167,#144,.T.);
#205=EDGE_CURVE('',#166,#168,#105,.T.);
#206=EDGE_CURVE('',#168,#168,#145,.T.);
#207=EDGE_CURVE('',#168,#149,#106,.T.);
#208=ORIENTED_EDGE('',*,*,#169,.T.);
#209=ORIENTED_EDGE('',*,*,#170,.T.);
#210=ORIENTED_EDGE('',*,*,#171,.T.);
#211=ORIENTED_EDGE('',*,*,#170,.F.);
#212=ORIENTED_EDGE('',*,*,#171,.F.);
#213=ORIENTED_EDGE('',*,*,#172,.T.);
#214=ORIENTED_EDGE('',*,*,#173,.F.);
#215=ORIENTED_EDGE('',*,*,#172,.F.);
#216=ORIENTED_EDGE('',*,*,#169,.F.);
#217=ORIENTED_EDGE('',*,*,#174,.F.);
#218=ORIENTED_EDGE('',*,*,#173,.T.);
#219=ORIENTED_EDGE('',*,*,#175,.T.);
#220=ORIENTED_EDGE('',*,*,#176,.T.);
#221=ORIENTED_EDGE('',*,*,#175,.F.);
#222=ORIENTED_EDGE('',*,*,#176,.F.);
#223=ORIENTED_EDGE('',*,*,#177,.F.);
#224=ORIENTED_EDGE('',*,*,#177,.T.);
#225=ORIENTED_EDGE('',*,*,#178,.T.);
#226=ORIENTED_EDGE('',*,*,#179,.T.);
#227=ORIENTED_EDGE('',*,*,#178,.F.);
#228=ORIENTED_EDGE('',*,*,#180,.F.);
#229=ORIENTED_EDGE('',*,*,#181,.T.);
#230=ORIENTED_EDGE('',*,*,#179,.F.);
#231=ORIENTED_EDGE('',*,*,#181,.F.);
#232=ORIENTED_EDGE('',*,*,#182,.T.);
#233=ORIENTED_EDGE('',*,*,#183,.T.);
#234=ORIENTED_EDGE('',*,*,#184,.T.);
#235=ORIENTED_EDGE('',*,*,#183,.F.);
#236=ORIENTED_EDGE('',*,*,#185,.F.);
#237=ORIENTED_EDGE('',*,*,#182,.F.);
#238=ORIENTED_EDGE('',*,*,#186,.F.);
#239=ORIENTED_EDGE('',*,*,#187,.T.);
#240=ORIENTED_EDGE('',*,*,#184,.F.);
#241=ORIENTED_EDGE('',*,*,#187,.F.);
#242=ORIENTED_EDGE('',*,*,#185,.T.);
#243=ORIENTED_EDGE('',*,*,#188,.T.);
#244=ORIENTED_EDGE('',*,*,#189,.T.);
#245=ORIENTED_EDGE('',*,*,#188,.F.);
#246=ORIENTED_EDGE('',*,*,#190,.F.);
#247=ORIENTED_EDGE('',*,*,#191,.T.);
#248=ORIENTED_EDGE('',*,*,#189,.F.);
#249=ORIENTED_EDGE('',*,*,#191,.F.);
#250=ORIENTED_EDGE('',*,*,#192,.T.);
#251=ORIENTED_EDGE('',*,*,#193,.T.);
#252=ORIENTED_EDGE('',*,*,#186,.T.);
#253=ORIENTED_EDGE('',*,*,#193,.F.);
#254=ORIENTED_EDGE('',*,*,#194,.F.);
#255=ORIENTED_EDGE('',*,*,#192,.F.);
#256=ORIENTED_EDGE('',*,*,#194,.T.);
#257=ORIENTED_EDGE('',*,*,#195,.T.);
#258=ORIENTED_EDGE('',*,*,#196,.T.);
#259=ORIENTED_EDGE('',*,*,#195,.F.);
#260=ORIENTED_EDGE('',*,*,#196,.F.);
#261=ORIENTED_EDGE('',*,*,#197,.T.);
#262=ORIENTED_EDGE('',*,*,#198,.F.);
#263=ORIENTED_EDGE('',*,*,#197,.F.);
#264=ORIENTED_EDGE('',*,*,#199,.T.);
#265=ORIENTED_EDGE('',*,*,#200,.T.);
#266=ORIENTED_EDGE('',*,*,#201,.T.);
#267=ORIENTED_EDGE('',*,*,#200,.F.);
#268=ORIENTED_EDGE('',*,*,#202,.F.);
#269=ORIENTED_EDGE('',*,*,#199,.F.);
#270=ORIENTED_EDGE('',*,*,#201,.F.);
#271=ORIENTED_EDGE('',*,*,#203,.T.);
#272=ORIENTED_EDGE('',*,*,#204,.F.);
#273=ORIENTED_EDGE('',*,*,#203,.F.);
#274=ORIENTED_EDGE('',*,*,#202,.T.);
#275=ORIENTED_EDGE('',*,*,#205,.T.);
#276=ORIENTED_EDGE('',*,*,#206,.T.);
#277=ORIENTED_EDGE('',*,*,#205,.F.);
#278=ORIENTED_EDGE('',*,*,#206,.F.);
#279=ORIENTED_EDGE('',*,*,#207,.T.);
#280=ORIENTED_EDGE('',*,*,#174,.T.);
#281=ORIENTED_EDGE('',*,*,#207,.F.);
#282=ORIENTED_EDGE('',*,*,#180,.T.);
#283=ORIENTED_EDGE('',*,*,#190,.T.);
#284=ORIENTED_EDGE('',*,*,#204,.T.);
#285=ORIENTED_EDGE('',*,*,#198,.T.);
#286=CONICAL_SURFACE('',#332,8.9375,0.785398163397446);
#287=CONICAL_SURFACE('',#339,8.9375,0.785398163397446);
#288=CONICAL_SURFACE('',#343,7.3125,0.785398163397446);
#289=CONICAL_SURFACE('',#347,4.0625,0.785398163397448);
#290=CONICAL_SURFACE('',#354,4.6875,0.785398163397448);
#291=CONICAL_SURFACE('',#358,4.0625,0.785398163397448);
#292=CONICAL_SURFACE('',#362,4.6875,0.785398163397448);
#293=CONICAL_SURFACE('',#366,7.3125,0.785398163397446);
#294=CONICAL_SURFACE('',#373,7.9375,0.785398163397446);
#295=ADVANCED_FACE('',(#38),#286,.T.);
#296=ADVANCED_FACE('',(#39),#31,.T.);
#297=ADVANCED_FACE('',(#40,#17),#24,.F.);
#298=ADVANCED_FACE('',(#41),#287,.T.);
#299=ADVANCED_FACE('',(#42,#18),#25,.F.);
#300=ADVANCED_FACE('',(#43),#288,.F.);
#301=ADVANCED_FACE('',(#44),#32,.F.);
#302=ADVANCED_FACE('',(#45),#289,.F.);
#303=ADVANCED_FACE('',(#46,#19),#26,.F.);
#304=ADVANCED_FACE('',(#47),#33,.F.);
#305=ADVANCED_FACE('',(#48),#290,.T.);
#306=ADVANCED_FACE('',(#49),#34,.T.);
#307=ADVANCED_FACE('',(#50),#291,.F.);
#308=ADVANCED_FACE('',(#51,#20),#27,.T.);
#309=ADVANCED_FACE('',(#52),#292,.T.);
#310=ADVANCED_FACE('',(#53),#35,.T.);
#311=ADVANCED_FACE('',(#54),#293,.F.);
#312=ADVANCED_FACE('',(#55,#21),#28,.T.);
#313=ADVANCED_FACE('',(#56),#36,.F.);
#314=ADVANCED_FACE('',(#57),#294,.T.);
#315=ADVANCED_FACE('',(#58),#37,.T.);
#316=ADVANCED_FACE('',(#59,#22),#29,.F.);
#317=ADVANCED_FACE('',(#60,#23),#30,.T.);
#318=CLOSED_SHELL('',(#295,#296,#297,#298,#299,#300,#301,#302,#303,#304,
#305,#306,#307,#308,#309,#310,#311,#312,#313,#314,#315,#316,#317));
#319=DERIVED_UNIT_ELEMENT(#321,1.);
#320=DERIVED_UNIT_ELEMENT(#579,-3.);
#321=(
MASS_UNIT()
NAMED_UNIT(*)
SI_UNIT(.KILO.,.GRAM.)
);
#322=DERIVED_UNIT((#319,#320));
#323=MEASURE_REPRESENTATION_ITEM('density measure',
POSITIVE_RATIO_MEASURE(8000.),#322);
#324=PROPERTY_DEFINITION_REPRESENTATION(#329,#326);
#325=PROPERTY_DEFINITION_REPRESENTATION(#330,#327);
#326=REPRESENTATION('material name',(#328),#576);
#327=REPRESENTATION('density',(#323),#576);
#328=DESCRIPTIVE_REPRESENTATION_ITEM('Stainless Steel',
'Stainless Steel');
#329=PROPERTY_DEFINITION('material property','material name',#586);
#330=PROPERTY_DEFINITION('material property','density of part',#586);
#331=AXIS2_PLACEMENT_3D('placement',#488,#378,#379);
#332=AXIS2_PLACEMENT_3D('',#489,#380,#381);
#333=AXIS2_PLACEMENT_3D('',#491,#382,#383);
#334=AXIS2_PLACEMENT_3D('',#494,#385,#386);
#335=AXIS2_PLACEMENT_3D('',#495,#387,#388);
#336=AXIS2_PLACEMENT_3D('',#498,#390,#391);
#337=AXIS2_PLACEMENT_3D('',#499,#392,#393);
#338=AXIS2_PLACEMENT_3D('',#501,#394,#395);
#339=AXIS2_PLACEMENT_3D('',#502,#396,#397);
#340=AXIS2_PLACEMENT_3D('',#505,#399,#400);
#341=AXIS2_PLACEMENT_3D('',#506,#401,#402);
#342=AXIS2_PLACEMENT_3D('',#508,#403,#404);
#343=AXIS2_PLACEMENT_3D('',#509,#405,#406);
#344=AXIS2_PLACEMENT_3D('',#512,#408,#409);
#345=AXIS2_PLACEMENT_3D('',#513,#410,#411);
#346=AXIS2_PLACEMENT_3D('',#515,#412,#413);
#347=AXIS2_PLACEMENT_3D('',#517,#415,#416);
#348=AXIS2_PLACEMENT_3D('',#519,#417,#418);
#349=AXIS2_PLACEMENT_3D('',#522,#420,#421);
#350=AXIS2_PLACEMENT_3D('',#523,#422,#423);
#351=AXIS2_PLACEMENT_3D('',#525,#424,#425);
#352=AXIS2_PLACEMENT_3D('',#526,#426,#427);
#353=AXIS2_PLACEMENT_3D('',#528,#428,#429);
#354=AXIS2_PLACEMENT_3D('',#530,#431,#432);
#355=AXIS2_PLACEMENT_3D('',#533,#434,#435);
#356=AXIS2_PLACEMENT_3D('',#534,#436,#437);
#357=AXIS2_PLACEMENT_3D('',#536,#438,#439);
#358=AXIS2_PLACEMENT_3D('',#538,#441,#442);
#359=AXIS2_PLACEMENT_3D('',#540,#443,#444);
#360=AXIS2_PLACEMENT_3D('',#542,#446,#447);
#361=AXIS2_PLACEMENT_3D('',#544,#448,#449);
#362=AXIS2_PLACEMENT_3D('',#545,#450,#451);
#363=AXIS2_PLACEMENT_3D('',#548,#453,#454);
#364=AXIS2_PLACEMENT_3D('',#549,#455,#456);
#365=AXIS2_PLACEMENT_3D('',#552,#458,#459);
#366=AXIS2_PLACEMENT_3D('',#553,#460,#461);
#367=AXIS2_PLACEMENT_3D('',#555,#462,#463);
#368=AXIS2_PLACEMENT_3D('',#558,#465,#466);
#369=AXIS2_PLACEMENT_3D('',#559,#467,#468);
#370=AXIS2_PLACEMENT_3D('',#561,#469,#470);
#371=AXIS2_PLACEMENT_3D('',#562,#471,#472);
#372=AXIS2_PLACEMENT_3D('',#565,#474,#475);
#373=AXIS2_PLACEMENT_3D('',#566,#476,#477);
#374=AXIS2_PLACEMENT_3D('',#569,#479,#480);
#375=AXIS2_PLACEMENT_3D('',#570,#481,#482);
#376=AXIS2_PLACEMENT_3D('',#572,#484,#485);
#377=AXIS2_PLACEMENT_3D('',#573,#486,#487);
#378=DIRECTION('axis',(0.,0.,1.));
#379=DIRECTION('refdir',(1.,0.,0.));
#380=DIRECTION('center_axis',(0.,0.,-1.));
#381=DIRECTION('ref_axis',(1.,0.,0.));
#382=DIRECTION('center_axis',(0.,0.,-1.));
#383=DIRECTION('ref_axis',(1.,0.,0.));
#384=DIRECTION('',(-0.707106781186546,-8.65956056235491E-17,-0.707106781186549));
#385=DIRECTION('center_axis',(0.,0.,1.));
#386=DIRECTION('ref_axis',(1.,0.,0.));
#387=DIRECTION('center_axis',(0.,0.,1.));
#388=DIRECTION('ref_axis',(1.,0.,0.));
#389=DIRECTION('',(0.,0.,-1.));
#390=DIRECTION('center_axis',(0.,0.,-1.));
#391=DIRECTION('ref_axis',(1.,0.,0.));
#392=DIRECTION('center_axis',(0.,0.,-1.));
#393=DIRECTION('ref_axis',(-1.,0.,0.));
#394=DIRECTION('center_axis',(0.,0.,1.));
#395=DIRECTION('ref_axis',(1.,0.,0.));
#396=DIRECTION('center_axis',(0.,0.,1.));
#397=DIRECTION('ref_axis',(1.,0.,0.));
#398=DIRECTION('',(0.707106781186546,8.65956056235491E-17,-0.707106781186549));
#399=DIRECTION('center_axis',(0.,0.,1.));
#400=DIRECTION('ref_axis',(1.,0.,0.));
#401=DIRECTION('center_axis',(0.,0.,1.));
#402=DIRECTION('ref_axis',(1.,0.,0.));
#403=DIRECTION('center_axis',(0.,0.,-1.));
#404=DIRECTION('ref_axis',(1.,0.,0.));
#405=DIRECTION('center_axis',(0.,0.,-1.));
#406=DIRECTION('ref_axis',(1.,0.,0.));
#407=DIRECTION('',(0.707106781186546,-8.65956056235491E-17,0.707106781186549));
#408=DIRECTION('center_axis',(0.,0.,1.));
#409=DIRECTION('ref_axis',(1.,0.,0.));
#410=DIRECTION('center_axis',(0.,0.,1.));
#411=DIRECTION('ref_axis',(1.,0.,0.));
#412=DIRECTION('center_axis',(0.,0.,-1.));
#413=DIRECTION('ref_axis',(1.,0.,0.));
#414=DIRECTION('',(0.,0.,-1.));
#415=DIRECTION('center_axis',(0.,0.,-1.));
#416=DIRECTION('ref_axis',(1.,0.,0.));
#417=DIRECTION('center_axis',(0.,0.,-1.));
#418=DIRECTION('ref_axis',(1.,0.,0.));
#419=DIRECTION('',(0.707106781186548,-8.65956056235493E-17,0.707106781186548));
#420=DIRECTION('center_axis',(0.,0.,1.));
#421=DIRECTION('ref_axis',(1.,0.,0.));
#422=DIRECTION('center_axis',(0.,0.,1.));
#423=DIRECTION('ref_axis',(1.,0.,0.));
#424=DIRECTION('center_axis',(0.,0.,1.));
#425=DIRECTION('ref_axis',(1.,0.,0.));
#426=DIRECTION('center_axis',(0.,0.,1.));
#427=DIRECTION('ref_axis',(1.,0.,0.));
#428=DIRECTION('center_axis',(0.,0.,-1.));
#429=DIRECTION('ref_axis',(1.,0.,0.));
#430=DIRECTION('',(0.,0.,-1.));
#431=DIRECTION('center_axis',(0.,0.,1.));
#432=DIRECTION('ref_axis',(1.,0.,0.));
#433=DIRECTION('',(-0.707106781186547,8.65956056235493E-17,0.707106781186547));
#434=DIRECTION('center_axis',(0.,0.,-1.));
#435=DIRECTION('ref_axis',(1.,0.,0.));
#436=DIRECTION('center_axis',(0.,0.,1.));
#437=DIRECTION('ref_axis',(1.,0.,0.));
#438=DIRECTION('center_axis',(0.,0.,1.));
#439=DIRECTION('ref_axis',(1.,0.,0.));
#440=DIRECTION('',(0.,0.,-1.));
#441=DIRECTION('center_axis',(0.,0.,1.));
#442=DIRECTION('ref_axis',(1.,0.,0.));
#443=DIRECTION('center_axis',(0.,0.,1.));
#444=DIRECTION('ref_axis',(1.,0.,0.));
#445=DIRECTION('',(0.707106781186548,8.65956056235493E-17,-0.707106781186548));
#446=DIRECTION('center_axis',(0.,0.,1.));
#447=DIRECTION('ref_axis',(1.,0.,0.));
#448=DIRECTION('center_axis',(0.,0.,-1.));
#449=DIRECTION('ref_axis',(1.,0.,0.));
#450=DIRECTION('center_axis',(0.,0.,-1.));
#451=DIRECTION('ref_axis',(1.,0.,0.));
#452=DIRECTION('',(-0.707106781186547,-8.65956056235493E-17,-0.707106781186547));
#453=DIRECTION('center_axis',(0.,0.,1.));
#454=DIRECTION('ref_axis',(1.,0.,0.));
#455=DIRECTION('center_axis',(0.,0.,1.));
#456=DIRECTION('ref_axis',(1.,0.,0.));
#457=DIRECTION('',(0.,0.,-1.));
#458=DIRECTION('center_axis',(0.,0.,-1.));
#459=DIRECTION('ref_axis',(1.,0.,0.));
#460=DIRECTION('center_axis',(0.,0.,1.));
#461=DIRECTION('ref_axis',(1.,0.,0.));
#462=DIRECTION('center_axis',(0.,0.,1.));
#463=DIRECTION('ref_axis',(1.,0.,0.));
#464=DIRECTION('',(0.707106781186546,8.65956056235491E-17,-0.707106781186549));
#465=DIRECTION('center_axis',(0.,0.,-1.));
#466=DIRECTION('ref_axis',(1.,0.,0.));
#467=DIRECTION('center_axis',(0.,0.,1.));
#468=DIRECTION('ref_axis',(1.,0.,0.));
#469=DIRECTION('center_axis',(0.,0.,-1.));
#470=DIRECTION('ref_axis',(1.,0.,0.));
#471=DIRECTION('center_axis',(0.,0.,1.));
#472=DIRECTION('ref_axis',(1.,0.,0.));
#473=DIRECTION('',(0.,0.,-1.));
#474=DIRECTION('center_axis',(0.,0.,1.));
#475=DIRECTION('ref_axis',(1.,0.,0.));
#476=DIRECTION('center_axis',(0.,0.,-1.));
#477=DIRECTION('ref_axis',(1.,0.,0.));
#478=DIRECTION('',(-0.707106781186546,-8.65956056235491E-17,-0.707106781186549));
#479=DIRECTION('center_axis',(0.,0.,1.));
#480=DIRECTION('ref_axis',(1.,0.,0.));
#481=DIRECTION('center_axis',(0.,0.,1.));
#482=DIRECTION('ref_axis',(1.,0.,0.));
#483=DIRECTION('',(0.,0.,-1.));
#484=DIRECTION('center_axis',(0.,0.,1.));
#485=DIRECTION('ref_axis',(1.,0.,0.));
#486=DIRECTION('center_axis',(0.,0.,1.));
#487=DIRECTION('ref_axis',(1.,0.,0.));
#488=CARTESIAN_POINT('',(0.,0.,0.));
#489=CARTESIAN_POINT('Origin',(0.,0.,-1.4625));
#490=CARTESIAN_POINT('',(-8.875,1.08687403424328E-15,-1.4));
#491=CARTESIAN_POINT('Origin',(0.,0.,-1.4));
#492=CARTESIAN_POINT('',(-9.,-1.10218211923262E-15,-1.525));
#493=CARTESIAN_POINT('',(-8.9375,-1.09452807673795E-15,-1.4625));
#494=CARTESIAN_POINT('Origin',(0.,0.,-1.525));
#495=CARTESIAN_POINT('Origin',(0.,0.,-2.5));
#496=CARTESIAN_POINT('',(-9.,1.10218211923262E-15,-2.375));
#497=CARTESIAN_POINT('',(-9.,-1.10218211923262E-15,-2.5));
#498=CARTESIAN_POINT('Origin',(0.,0.,-2.375));
#499=CARTESIAN_POINT('Origin',(0.,0.,-1.4));
#500=CARTESIAN_POINT('',(-8.,9.79717439317883E-16,-1.4));
#501=CARTESIAN_POINT('Origin',(0.,0.,-1.4));
#502=CARTESIAN_POINT('Origin',(0.,0.,-2.4375));
#503=CARTESIAN_POINT('',(-8.875,-1.08687403424328E-15,-2.5));
#504=CARTESIAN_POINT('',(-8.9375,-1.09452807673795E-15,-2.4375));
#505=CARTESIAN_POINT('Origin',(0.,0.,-2.5));
#506=CARTESIAN_POINT('Origin',(0.,0.,-2.5));
#507=CARTESIAN_POINT('',(-7.375,9.03177014371173E-16,-2.5));
#508=CARTESIAN_POINT('Origin',(0.,0.,-2.5));
#509=CARTESIAN_POINT('Origin',(0.,0.,-2.4375));
#510=CARTESIAN_POINT('',(-7.25,-8.87868929381831E-16,-2.375));
#511=CARTESIAN_POINT('',(-7.3125,8.95522971876502E-16,-2.4375));
#512=CARTESIAN_POINT('Origin',(0.,0.,-2.375));
#513=CARTESIAN_POINT('Origin',(0.,0.,0.));
#514=CARTESIAN_POINT('',(-7.25,-8.87868929381831E-16,-2.25));
#515=CARTESIAN_POINT('Origin',(0.,0.,-2.25));
#516=CARTESIAN_POINT('',(-7.25,-8.87868929381831E-16,0.));
#517=CARTESIAN_POINT('Origin',(0.,0.,-2.4375));
#518=CARTESIAN_POINT('',(-4.125,5.05166804648283E-16,-2.5));
#519=CARTESIAN_POINT('Origin',(0.,0.,-2.5));
#520=CARTESIAN_POINT('',(-4.,-4.89858719658941E-16,-2.375));
#521=CARTESIAN_POINT('',(-4.0625,4.97512762153612E-16,-2.4375));
#522=CARTESIAN_POINT('Origin',(0.,0.,-2.375));
#523=CARTESIAN_POINT('Origin',(0.,0.,-2.5));
#524=CARTESIAN_POINT('',(-4.625,-5.66399144605651E-16,-2.5));
#525=CARTESIAN_POINT('Origin',(0.,0.,-2.5));
#526=CARTESIAN_POINT('Origin',(0.,0.,0.));
#527=CARTESIAN_POINT('',(-4.,4.89858719658941E-16,2.375));
#528=CARTESIAN_POINT('Origin',(0.,0.,2.375));
#529=CARTESIAN_POINT('',(-4.,-4.89858719658941E-16,0.));
#530=CARTESIAN_POINT('Origin',(0.,0.,-2.4375));
#531=CARTESIAN_POINT('',(-4.75,5.81707229594993E-16,-2.375));
#532=CARTESIAN_POINT('',(-4.6875,5.74053187100322E-16,-2.4375));
#533=CARTESIAN_POINT('Origin',(0.,0.,-2.375));
#534=CARTESIAN_POINT('Origin',(0.,0.,0.));
#535=CARTESIAN_POINT('',(-4.75,-5.81707229594993E-16,-2.25));
#536=CARTESIAN_POINT('Origin',(0.,0.,-2.25));
#537=CARTESIAN_POINT('',(-4.75,-5.81707229594993E-16,0.));
#538=CARTESIAN_POINT('Origin',(0.,0.,2.4375));
#539=CARTESIAN_POINT('',(-4.125,-5.05166804648283E-16,2.5));
#540=CARTESIAN_POINT('Origin',(0.,0.,2.5));
#541=CARTESIAN_POINT('',(-4.0625,-4.97512762153612E-16,2.4375));
#542=CARTESIAN_POINT('Origin',(0.,0.,2.5));
#543=CARTESIAN_POINT('',(-4.625,5.66399144605651E-16,2.5));
#544=CARTESIAN_POINT('Origin',(0.,0.,2.5));
#545=CARTESIAN_POINT('Origin',(0.,0.,2.4375));
#546=CARTESIAN_POINT('',(-4.75,-5.81707229594993E-16,2.375));
#547=CARTESIAN_POINT('',(-4.6875,-5.74053187100322E-16,2.4375));
#548=CARTESIAN_POINT('Origin',(0.,0.,2.375));
#549=CARTESIAN_POINT('Origin',(0.,0.,0.));
#550=CARTESIAN_POINT('',(-4.75,-5.81707229594993E-16,2.25));
#551=CARTESIAN_POINT('',(-4.75,-5.81707229594993E-16,0.));
#552=CARTESIAN_POINT('Origin',(0.,0.,2.25));
#553=CARTESIAN_POINT('Origin',(0.,0.,2.4375));
#554=CARTESIAN_POINT('',(-7.375,-9.03177014371173E-16,2.5));
#555=CARTESIAN_POINT('Origin',(0.,0.,2.5));
#556=CARTESIAN_POINT('',(-7.25,8.87868929381831E-16,2.375));
#557=CARTESIAN_POINT('',(-7.3125,-8.95522971876502E-16,2.4375));
#558=CARTESIAN_POINT('Origin',(0.,0.,2.375));
#559=CARTESIAN_POINT('Origin',(0.,0.,2.5));
#560=CARTESIAN_POINT('',(-7.875,9.64409354328541E-16,2.5));
#561=CARTESIAN_POINT('Origin',(0.,0.,2.5));
#562=CARTESIAN_POINT('Origin',(0.,0.,0.));
#563=CARTESIAN_POINT('',(-7.25,-8.87868929381831E-16,2.25));
#564=CARTESIAN_POINT('',(-7.25,-8.87868929381831E-16,0.));
#565=CARTESIAN_POINT('Origin',(0.,0.,2.25));
#566=CARTESIAN_POINT('Origin',(0.,0.,2.4375));
#567=CARTESIAN_POINT('',(-8.,-9.79717439317883E-16,2.375));
#568=CARTESIAN_POINT('',(-7.9375,-9.72063396823212E-16,2.4375));
#569=CARTESIAN_POINT('Origin',(0.,0.,2.375));
#570=CARTESIAN_POINT('Origin',(0.,0.,0.));
#571=CARTESIAN_POINT('',(-8.,-9.79717439317883E-16,0.));
#572=CARTESIAN_POINT('Origin',(0.,0.,-2.25));
#573=CARTESIAN_POINT('Origin',(0.,0.,2.25));
#574=UNCERTAINTY_MEASURE_WITH_UNIT(LENGTH_MEASURE(0.01),#578,
'DISTANCE_ACCURACY_VALUE',
'Maximum model space distance between geometric entities at asserted c
onnectivities');
#575=UNCERTAINTY_MEASURE_WITH_UNIT(LENGTH_MEASURE(0.01),#578,
'DISTANCE_ACCURACY_VALUE',
'Maximum model space distance between geometric entities at asserted c
onnectivities');
#576=(
GEOMETRIC_REPRESENTATION_CONTEXT(3)
GLOBAL_UNCERTAINTY_ASSIGNED_CONTEXT((#574))
GLOBAL_UNIT_ASSIGNED_CONTEXT((#578,#580,#581))
REPRESENTATION_CONTEXT('','3D')
);
#577=(
GEOMETRIC_REPRESENTATION_CONTEXT(3)
GLOBAL_UNCERTAINTY_ASSIGNED_CONTEXT((#575))
GLOBAL_UNIT_ASSIGNED_CONTEXT((#578,#580,#581))
REPRESENTATION_CONTEXT('','3D')
);
#578=(
LENGTH_UNIT()
NAMED_UNIT(*)
SI_UNIT(.MILLI.,.METRE.)
);
#579=(
LENGTH_UNIT()
NAMED_UNIT(*)
SI_UNIT($,.METRE.)
);
#580=(
NAMED_UNIT(*)
PLANE_ANGLE_UNIT()
SI_UNIT($,.RADIAN.)
);
#581=(
NAMED_UNIT(*)
SI_UNIT($,.STERADIAN.)
SOLID_ANGLE_UNIT()
);
#582=SHAPE_DEFINITION_REPRESENTATION(#583,#584);
#583=PRODUCT_DEFINITION_SHAPE('',$,#586);
#584=SHAPE_REPRESENTATION('',(#331),#576);
#585=PRODUCT_DEFINITION_CONTEXT('part definition',#590,'design');
#586=PRODUCT_DEFINITION('HW1309WC','Ball Bearing - F688ZZ v1',#587,#585);
#587=PRODUCT_DEFINITION_FORMATION('',$,#592);
#588=PRODUCT_RELATED_PRODUCT_CATEGORY('Ball Bearing - F688ZZ v1',
'Ball Bearing - F688ZZ v1',(#592));
#589=APPLICATION_PROTOCOL_DEFINITION('international standard',
'automotive_design',2009,#590);
#590=APPLICATION_CONTEXT(
'Core Data for Automotive Mechanical Design Process');
#591=PRODUCT_CONTEXT('part definition',#590,'mechanical');
#592=PRODUCT('HW1309WC','Ball Bearing - F688ZZ v1',$,(#591));
#593=PRESENTATION_STYLE_ASSIGNMENT((#595));
#594=PRESENTATION_STYLE_ASSIGNMENT((#596));
#595=SURFACE_STYLE_USAGE(.BOTH.,#597);
#596=SURFACE_STYLE_USAGE(.BOTH.,#598);
#597=SURFACE_SIDE_STYLE('',(#599));
#598=SURFACE_SIDE_STYLE('',(#600));
#599=SURFACE_STYLE_FILL_AREA(#601);
#600=SURFACE_STYLE_FILL_AREA(#602);
#601=FILL_AREA_STYLE('Stainless Steel - Satin',(#603));
#602=FILL_AREA_STYLE('Nickel - Satin',(#604));
#603=FILL_AREA_STYLE_COLOUR('Stainless Steel - Satin',#605);
#604=FILL_AREA_STYLE_COLOUR('Nickel - Satin',#606);
#605=COLOUR_RGB('Stainless Steel - Satin',0.796078431372549,0.796078431372549,
0.796078431372549);
#606=COLOUR_RGB('Nickel - Satin',0.819607843137255,0.8,0.752941176470588);
ENDSEC;
END-ISO-10303-21;
