ISO-10303-21;
HEADER;
/* Generated by software containing ST-Developer
 * from STEP Tools, Inc. (www.steptools.com) 
 */

FILE_DESCRIPTION(
/* description */ (''),
/* implementation_level */ '2;1');

FILE_NAME(
/* name */ 
'C:/Users/NexxCat/Documents/GitHub/lab.ratrig.com/docs/src/cad/HW1915P
C-Joining Plate for 3030 - 90 Degree - Black Anodized.step',
/* time_stamp */ '2022-09-19T15:25:24+01:00',
/* author */ (''),
/* organization */ (''),
/* preprocessor_version */ 'ST-DEVELOPER v19',
/* originating_system */ 'Autodesk Translation Framework v11.7.0.108',
/* authorisation */ '');

FILE_SCHEMA (('AUTOMOTIVE_DESIGN { 1 0 10303 214 3 1 1 }'));
ENDSEC;

DATA;
#10=MECHANICAL_DESIGN_GEOMETRIC_PRESENTATION_REPRESENTATION('',(#13),#586);
#11=SHAPE_REPRESENTATION_RELATIONSHIP('SRR','None',#593,#12);
#12=ADVANCED_BREP_SHAPE_REPRESENTATION('',(#14),#585);
#13=STYLED_ITEM('',(#602),#14);
#14=MANIFOLD_SOLID_BREP('Body1',#338);
#15=FACE_BOUND('',#51,.T.);
#16=FACE_BOUND('',#52,.T.);
#17=FACE_BOUND('',#53,.T.);
#18=FACE_BOUND('',#54,.T.);
#19=FACE_BOUND('',#55,.T.);
#20=FACE_BOUND('',#71,.T.);
#21=FACE_BOUND('',#72,.T.);
#22=FACE_BOUND('',#73,.T.);
#23=FACE_BOUND('',#74,.T.);
#24=FACE_BOUND('',#75,.T.);
#25=PLANE('',#355);
#26=PLANE('',#365);
#27=PLANE('',#370);
#28=PLANE('',#373);
#29=PLANE('',#386);
#30=PLANE('',#387);
#31=PLANE('',#388);
#32=FACE_OUTER_BOUND('',#49,.T.);
#33=FACE_OUTER_BOUND('',#50,.T.);
#34=FACE_OUTER_BOUND('',#56,.T.);
#35=FACE_OUTER_BOUND('',#57,.T.);
#36=FACE_OUTER_BOUND('',#58,.T.);
#37=FACE_OUTER_BOUND('',#59,.T.);
#38=FACE_OUTER_BOUND('',#60,.T.);
#39=FACE_OUTER_BOUND('',#61,.T.);
#40=FACE_OUTER_BOUND('',#62,.T.);
#41=FACE_OUTER_BOUND('',#63,.T.);
#42=FACE_OUTER_BOUND('',#64,.T.);
#43=FACE_OUTER_BOUND('',#65,.T.);
#44=FACE_OUTER_BOUND('',#66,.T.);
#45=FACE_OUTER_BOUND('',#67,.T.);
#46=FACE_OUTER_BOUND('',#68,.T.);
#47=FACE_OUTER_BOUND('',#69,.T.);
#48=FACE_OUTER_BOUND('',#70,.T.);
#49=EDGE_LOOP('',(#221,#222,#223,#224));
#50=EDGE_LOOP('',(#225,#226,#227,#228,#229,#230,#231,#232,#233,#234));
#51=EDGE_LOOP('',(#235));
#52=EDGE_LOOP('',(#236));
#53=EDGE_LOOP('',(#237));
#54=EDGE_LOOP('',(#238));
#55=EDGE_LOOP('',(#239));
#56=EDGE_LOOP('',(#240,#241,#242,#243));
#57=EDGE_LOOP('',(#244,#245,#246,#247));
#58=EDGE_LOOP('',(#248,#249,#250,#251));
#59=EDGE_LOOP('',(#252,#253,#254,#255));
#60=EDGE_LOOP('',(#256,#257,#258,#259));
#61=EDGE_LOOP('',(#260,#261,#262,#263));
#62=EDGE_LOOP('',(#264,#265,#266,#267));
#63=EDGE_LOOP('',(#268,#269,#270,#271));
#64=EDGE_LOOP('',(#272,#273,#274,#275));
#65=EDGE_LOOP('',(#276,#277,#278,#279));
#66=EDGE_LOOP('',(#280,#281,#282,#283));
#67=EDGE_LOOP('',(#284,#285,#286,#287));
#68=EDGE_LOOP('',(#288,#289,#290,#291));
#69=EDGE_LOOP('',(#292,#293,#294,#295));
#70=EDGE_LOOP('',(#296,#297,#298,#299,#300,#301,#302,#303,#304,#305));
#71=EDGE_LOOP('',(#306));
#72=EDGE_LOOP('',(#307));
#73=EDGE_LOOP('',(#308));
#74=EDGE_LOOP('',(#309));
#75=EDGE_LOOP('',(#310));
#76=LINE('',#496,#101);
#77=LINE('',#499,#102);
#78=LINE('',#502,#103);
#79=LINE('',#506,#104);
#80=LINE('',#510,#105);
#81=LINE('',#514,#106);
#82=LINE('',#517,#107);
#83=LINE('',#530,#108);
#84=LINE('',#531,#109);
#85=LINE('',#535,#110);
#86=LINE('',#540,#111);
#87=LINE('',#541,#112);
#88=LINE('',#544,#113);
#89=LINE('',#545,#114);
#90=LINE('',#549,#115);
#91=LINE('',#552,#116);
#92=LINE('',#553,#117);
#93=LINE('',#557,#118);
#94=LINE('',#561,#119);
#95=LINE('',#565,#120);
#96=LINE('',#569,#121);
#97=LINE('',#573,#122);
#98=LINE('',#577,#123);
#99=LINE('',#579,#124);
#100=LINE('',#581,#125);
#101=VECTOR('',#395,10.);
#102=VECTOR('',#398,10.);
#103=VECTOR('',#401,10.);
#104=VECTOR('',#404,10.);
#105=VECTOR('',#407,10.);
#106=VECTOR('',#410,10.);
#107=VECTOR('',#413,10.);
#108=VECTOR('',#426,10.);
#109=VECTOR('',#427,10.);
#110=VECTOR('',#432,10.);
#111=VECTOR('',#437,10.);
#112=VECTOR('',#438,10.);
#113=VECTOR('',#441,10.);
#114=VECTOR('',#442,10.);
#115=VECTOR('',#447,10.);
#116=VECTOR('',#450,10.);
#117=VECTOR('',#451,10.);
#118=VECTOR('',#456,10.);
#119=VECTOR('',#461,3.1);
#120=VECTOR('',#466,3.1);
#121=VECTOR('',#471,3.1);
#122=VECTOR('',#476,3.1);
#123=VECTOR('',#481,3.1);
#124=VECTOR('',#484,10.);
#125=VECTOR('',#487,10.);
#126=CIRCLE('',#353,1.);
#127=CIRCLE('',#354,1.);
#128=CIRCLE('',#356,1.);
#129=CIRCLE('',#357,1.);
#130=CIRCLE('',#358,1.);
#131=CIRCLE('',#359,1.);
#132=CIRCLE('',#360,3.1);
#133=CIRCLE('',#361,3.1);
#134=CIRCLE('',#362,3.1);
#135=CIRCLE('',#363,3.1);
#136=CIRCLE('',#364,3.1);
#137=CIRCLE('',#367,1.);
#138=CIRCLE('',#369,1.);
#139=CIRCLE('',#372,1.);
#140=CIRCLE('',#375,1.);
#141=CIRCLE('',#377,3.1);
#142=CIRCLE('',#379,3.1);
#143=CIRCLE('',#381,3.1);
#144=CIRCLE('',#383,3.1);
#145=CIRCLE('',#385,3.1);
#146=VERTEX_POINT('',#492);
#147=VERTEX_POINT('',#493);
#148=VERTEX_POINT('',#495);
#149=VERTEX_POINT('',#497);
#150=VERTEX_POINT('',#501);
#151=VERTEX_POINT('',#503);
#152=VERTEX_POINT('',#505);
#153=VERTEX_POINT('',#507);
#154=VERTEX_POINT('',#509);
#155=VERTEX_POINT('',#511);
#156=VERTEX_POINT('',#513);
#157=VERTEX_POINT('',#515);
#158=VERTEX_POINT('',#518);
#159=VERTEX_POINT('',#520);
#160=VERTEX_POINT('',#522);
#161=VERTEX_POINT('',#524);
#162=VERTEX_POINT('',#526);
#163=VERTEX_POINT('',#529);
#164=VERTEX_POINT('',#533);
#165=VERTEX_POINT('',#537);
#166=VERTEX_POINT('',#538);
#167=VERTEX_POINT('',#543);
#168=VERTEX_POINT('',#547);
#169=VERTEX_POINT('',#551);
#170=VERTEX_POINT('',#555);
#171=VERTEX_POINT('',#559);
#172=VERTEX_POINT('',#563);
#173=VERTEX_POINT('',#567);
#174=VERTEX_POINT('',#571);
#175=VERTEX_POINT('',#575);
#176=EDGE_CURVE('',#146,#147,#126,.T.);
#177=EDGE_CURVE('',#147,#148,#76,.T.);
#178=EDGE_CURVE('',#148,#149,#127,.T.);
#179=EDGE_CURVE('',#149,#146,#77,.T.);
#180=EDGE_CURVE('',#150,#148,#78,.T.);
#181=EDGE_CURVE('',#151,#150,#128,.T.);
#182=EDGE_CURVE('',#151,#152,#79,.T.);
#183=EDGE_CURVE('',#153,#152,#129,.T.);
#184=EDGE_CURVE('',#153,#154,#80,.T.);
#185=EDGE_CURVE('',#155,#154,#130,.T.);
#186=EDGE_CURVE('',#155,#156,#81,.T.);
#187=EDGE_CURVE('',#157,#156,#131,.T.);
#188=EDGE_CURVE('',#149,#157,#82,.T.);
#189=EDGE_CURVE('',#158,#158,#132,.T.);
#190=EDGE_CURVE('',#159,#159,#133,.T.);
#191=EDGE_CURVE('',#160,#160,#134,.T.);
#192=EDGE_CURVE('',#161,#161,#135,.T.);
#193=EDGE_CURVE('',#162,#162,#136,.T.);
#194=EDGE_CURVE('',#163,#147,#83,.T.);
#195=EDGE_CURVE('',#150,#163,#84,.T.);
#196=EDGE_CURVE('',#163,#164,#137,.T.);
#197=EDGE_CURVE('',#164,#151,#85,.T.);
#198=EDGE_CURVE('',#165,#166,#138,.T.);
#199=EDGE_CURVE('',#166,#157,#86,.T.);
#200=EDGE_CURVE('',#156,#165,#87,.T.);
#201=EDGE_CURVE('',#167,#155,#88,.T.);
#202=EDGE_CURVE('',#165,#167,#89,.T.);
#203=EDGE_CURVE('',#168,#167,#139,.T.);
#204=EDGE_CURVE('',#154,#168,#90,.T.);
#205=EDGE_CURVE('',#169,#153,#91,.T.);
#206=EDGE_CURVE('',#168,#169,#92,.T.);
#207=EDGE_CURVE('',#170,#169,#140,.T.);
#208=EDGE_CURVE('',#152,#170,#93,.T.);
#209=EDGE_CURVE('',#171,#171,#141,.T.);
#210=EDGE_CURVE('',#171,#158,#94,.T.);
#211=EDGE_CURVE('',#172,#172,#142,.T.);
#212=EDGE_CURVE('',#172,#159,#95,.T.);
#213=EDGE_CURVE('',#173,#173,#143,.T.);
#214=EDGE_CURVE('',#173,#160,#96,.T.);
#215=EDGE_CURVE('',#174,#174,#144,.T.);
#216=EDGE_CURVE('',#174,#161,#97,.T.);
#217=EDGE_CURVE('',#175,#175,#145,.T.);
#218=EDGE_CURVE('',#175,#162,#98,.T.);
#219=EDGE_CURVE('',#170,#164,#99,.T.);
#220=EDGE_CURVE('',#146,#166,#100,.T.);
#221=ORIENTED_EDGE('',*,*,#176,.T.);
#222=ORIENTED_EDGE('',*,*,#177,.T.);
#223=ORIENTED_EDGE('',*,*,#178,.T.);
#224=ORIENTED_EDGE('',*,*,#179,.T.);
#225=ORIENTED_EDGE('',*,*,#178,.F.);
#226=ORIENTED_EDGE('',*,*,#180,.F.);
#227=ORIENTED_EDGE('',*,*,#181,.F.);
#228=ORIENTED_EDGE('',*,*,#182,.T.);
#229=ORIENTED_EDGE('',*,*,#183,.F.);
#230=ORIENTED_EDGE('',*,*,#184,.T.);
#231=ORIENTED_EDGE('',*,*,#185,.F.);
#232=ORIENTED_EDGE('',*,*,#186,.T.);
#233=ORIENTED_EDGE('',*,*,#187,.F.);
#234=ORIENTED_EDGE('',*,*,#188,.F.);
#235=ORIENTED_EDGE('',*,*,#189,.F.);
#236=ORIENTED_EDGE('',*,*,#190,.F.);
#237=ORIENTED_EDGE('',*,*,#191,.F.);
#238=ORIENTED_EDGE('',*,*,#192,.F.);
#239=ORIENTED_EDGE('',*,*,#193,.F.);
#240=ORIENTED_EDGE('',*,*,#177,.F.);
#241=ORIENTED_EDGE('',*,*,#194,.F.);
#242=ORIENTED_EDGE('',*,*,#195,.F.);
#243=ORIENTED_EDGE('',*,*,#180,.T.);
#244=ORIENTED_EDGE('',*,*,#196,.T.);
#245=ORIENTED_EDGE('',*,*,#197,.T.);
#246=ORIENTED_EDGE('',*,*,#181,.T.);
#247=ORIENTED_EDGE('',*,*,#195,.T.);
#248=ORIENTED_EDGE('',*,*,#198,.T.);
#249=ORIENTED_EDGE('',*,*,#199,.T.);
#250=ORIENTED_EDGE('',*,*,#187,.T.);
#251=ORIENTED_EDGE('',*,*,#200,.T.);
#252=ORIENTED_EDGE('',*,*,#200,.F.);
#253=ORIENTED_EDGE('',*,*,#186,.F.);
#254=ORIENTED_EDGE('',*,*,#201,.F.);
#255=ORIENTED_EDGE('',*,*,#202,.F.);
#256=ORIENTED_EDGE('',*,*,#203,.T.);
#257=ORIENTED_EDGE('',*,*,#201,.T.);
#258=ORIENTED_EDGE('',*,*,#185,.T.);
#259=ORIENTED_EDGE('',*,*,#204,.T.);
#260=ORIENTED_EDGE('',*,*,#204,.F.);
#261=ORIENTED_EDGE('',*,*,#184,.F.);
#262=ORIENTED_EDGE('',*,*,#205,.F.);
#263=ORIENTED_EDGE('',*,*,#206,.F.);
#264=ORIENTED_EDGE('',*,*,#207,.T.);
#265=ORIENTED_EDGE('',*,*,#205,.T.);
#266=ORIENTED_EDGE('',*,*,#183,.T.);
#267=ORIENTED_EDGE('',*,*,#208,.T.);
#268=ORIENTED_EDGE('',*,*,#209,.F.);
#269=ORIENTED_EDGE('',*,*,#210,.T.);
#270=ORIENTED_EDGE('',*,*,#189,.T.);
#271=ORIENTED_EDGE('',*,*,#210,.F.);
#272=ORIENTED_EDGE('',*,*,#211,.F.);
#273=ORIENTED_EDGE('',*,*,#212,.T.);
#274=ORIENTED_EDGE('',*,*,#190,.T.);
#275=ORIENTED_EDGE('',*,*,#212,.F.);
#276=ORIENTED_EDGE('',*,*,#213,.F.);
#277=ORIENTED_EDGE('',*,*,#214,.T.);
#278=ORIENTED_EDGE('',*,*,#191,.T.);
#279=ORIENTED_EDGE('',*,*,#214,.F.);
#280=ORIENTED_EDGE('',*,*,#215,.F.);
#281=ORIENTED_EDGE('',*,*,#216,.T.);
#282=ORIENTED_EDGE('',*,*,#192,.T.);
#283=ORIENTED_EDGE('',*,*,#216,.F.);
#284=ORIENTED_EDGE('',*,*,#217,.F.);
#285=ORIENTED_EDGE('',*,*,#218,.T.);
#286=ORIENTED_EDGE('',*,*,#193,.T.);
#287=ORIENTED_EDGE('',*,*,#218,.F.);
#288=ORIENTED_EDGE('',*,*,#197,.F.);
#289=ORIENTED_EDGE('',*,*,#219,.F.);
#290=ORIENTED_EDGE('',*,*,#208,.F.);
#291=ORIENTED_EDGE('',*,*,#182,.F.);
#292=ORIENTED_EDGE('',*,*,#179,.F.);
#293=ORIENTED_EDGE('',*,*,#188,.T.);
#294=ORIENTED_EDGE('',*,*,#199,.F.);
#295=ORIENTED_EDGE('',*,*,#220,.F.);
#296=ORIENTED_EDGE('',*,*,#176,.F.);
#297=ORIENTED_EDGE('',*,*,#220,.T.);
#298=ORIENTED_EDGE('',*,*,#198,.F.);
#299=ORIENTED_EDGE('',*,*,#202,.T.);
#300=ORIENTED_EDGE('',*,*,#203,.F.);
#301=ORIENTED_EDGE('',*,*,#206,.T.);
#302=ORIENTED_EDGE('',*,*,#207,.F.);
#303=ORIENTED_EDGE('',*,*,#219,.T.);
#304=ORIENTED_EDGE('',*,*,#196,.F.);
#305=ORIENTED_EDGE('',*,*,#194,.T.);
#306=ORIENTED_EDGE('',*,*,#217,.T.);
#307=ORIENTED_EDGE('',*,*,#215,.T.);
#308=ORIENTED_EDGE('',*,*,#213,.T.);
#309=ORIENTED_EDGE('',*,*,#211,.T.);
#310=ORIENTED_EDGE('',*,*,#209,.T.);
#311=CYLINDRICAL_SURFACE('',#352,1.);
#312=CYLINDRICAL_SURFACE('',#366,1.);
#313=CYLINDRICAL_SURFACE('',#368,1.);
#314=CYLINDRICAL_SURFACE('',#371,1.);
#315=CYLINDRICAL_SURFACE('',#374,1.);
#316=CYLINDRICAL_SURFACE('',#376,3.1);
#317=CYLINDRICAL_SURFACE('',#378,3.1);
#318=CYLINDRICAL_SURFACE('',#380,3.1);
#319=CYLINDRICAL_SURFACE('',#382,3.1);
#320=CYLINDRICAL_SURFACE('',#384,3.1);
#321=ADVANCED_FACE('',(#32),#311,.T.);
#322=ADVANCED_FACE('',(#33,#15,#16,#17,#18,#19),#25,.F.);
#323=ADVANCED_FACE('',(#34),#26,.T.);
#324=ADVANCED_FACE('',(#35),#312,.T.);
#325=ADVANCED_FACE('',(#36),#313,.T.);
#326=ADVANCED_FACE('',(#37),#27,.T.);
#327=ADVANCED_FACE('',(#38),#314,.T.);
#328=ADVANCED_FACE('',(#39),#28,.T.);
#329=ADVANCED_FACE('',(#40),#315,.T.);
#330=ADVANCED_FACE('',(#41),#316,.F.);
#331=ADVANCED_FACE('',(#42),#317,.F.);
#332=ADVANCED_FACE('',(#43),#318,.F.);
#333=ADVANCED_FACE('',(#44),#319,.F.);
#334=ADVANCED_FACE('',(#45),#320,.F.);
#335=ADVANCED_FACE('',(#46),#29,.T.);
#336=ADVANCED_FACE('',(#47),#30,.T.);
#337=ADVANCED_FACE('',(#48,#20,#21,#22,#23,#24),#31,.T.);
#338=CLOSED_SHELL('',(#321,#322,#323,#324,#325,#326,#327,#328,#329,#330,
#331,#332,#333,#334,#335,#336,#337));
#339=DERIVED_UNIT_ELEMENT(#341,1.);
#340=DERIVED_UNIT_ELEMENT(#588,-3.);
#341=(
MASS_UNIT()
NAMED_UNIT(*)
SI_UNIT(.KILO.,.GRAM.)
);
#342=DERIVED_UNIT((#339,#340));
#343=MEASURE_REPRESENTATION_ITEM('density measure',
POSITIVE_RATIO_MEASURE(2700.),#342);
#344=PROPERTY_DEFINITION_REPRESENTATION(#349,#346);
#345=PROPERTY_DEFINITION_REPRESENTATION(#350,#347);
#346=REPRESENTATION('material name',(#348),#585);
#347=REPRESENTATION('density',(#343),#585);
#348=DESCRIPTIVE_REPRESENTATION_ITEM('Aluminum 6061 T6 0 Cold Formed',
'Aluminum 6061 T6 0 Cold Formed');
#349=PROPERTY_DEFINITION('material property','material name',#595);
#350=PROPERTY_DEFINITION('material property','density of part',#595);
#351=AXIS2_PLACEMENT_3D('placement',#490,#389,#390);
#352=AXIS2_PLACEMENT_3D('',#491,#391,#392);
#353=AXIS2_PLACEMENT_3D('',#494,#393,#394);
#354=AXIS2_PLACEMENT_3D('',#498,#396,#397);
#355=AXIS2_PLACEMENT_3D('',#500,#399,#400);
#356=AXIS2_PLACEMENT_3D('',#504,#402,#403);
#357=AXIS2_PLACEMENT_3D('',#508,#405,#406);
#358=AXIS2_PLACEMENT_3D('',#512,#408,#409);
#359=AXIS2_PLACEMENT_3D('',#516,#411,#412);
#360=AXIS2_PLACEMENT_3D('',#519,#414,#415);
#361=AXIS2_PLACEMENT_3D('',#521,#416,#417);
#362=AXIS2_PLACEMENT_3D('',#523,#418,#419);
#363=AXIS2_PLACEMENT_3D('',#525,#420,#421);
#364=AXIS2_PLACEMENT_3D('',#527,#422,#423);
#365=AXIS2_PLACEMENT_3D('',#528,#424,#425);
#366=AXIS2_PLACEMENT_3D('',#532,#428,#429);
#367=AXIS2_PLACEMENT_3D('',#534,#430,#431);
#368=AXIS2_PLACEMENT_3D('',#536,#433,#434);
#369=AXIS2_PLACEMENT_3D('',#539,#435,#436);
#370=AXIS2_PLACEMENT_3D('',#542,#439,#440);
#371=AXIS2_PLACEMENT_3D('',#546,#443,#444);
#372=AXIS2_PLACEMENT_3D('',#548,#445,#446);
#373=AXIS2_PLACEMENT_3D('',#550,#448,#449);
#374=AXIS2_PLACEMENT_3D('',#554,#452,#453);
#375=AXIS2_PLACEMENT_3D('',#556,#454,#455);
#376=AXIS2_PLACEMENT_3D('',#558,#457,#458);
#377=AXIS2_PLACEMENT_3D('',#560,#459,#460);
#378=AXIS2_PLACEMENT_3D('',#562,#462,#463);
#379=AXIS2_PLACEMENT_3D('',#564,#464,#465);
#380=AXIS2_PLACEMENT_3D('',#566,#467,#468);
#381=AXIS2_PLACEMENT_3D('',#568,#469,#470);
#382=AXIS2_PLACEMENT_3D('',#570,#472,#473);
#383=AXIS2_PLACEMENT_3D('',#572,#474,#475);
#384=AXIS2_PLACEMENT_3D('',#574,#477,#478);
#385=AXIS2_PLACEMENT_3D('',#576,#479,#480);
#386=AXIS2_PLACEMENT_3D('',#578,#482,#483);
#387=AXIS2_PLACEMENT_3D('',#580,#485,#486);
#388=AXIS2_PLACEMENT_3D('',#582,#488,#489);
#389=DIRECTION('axis',(0.,0.,1.));
#390=DIRECTION('refdir',(1.,0.,0.));
#391=DIRECTION('center_axis',(1.,0.,0.));
#392=DIRECTION('ref_axis',(0.,-0.382683432365091,0.923879532511286));
#393=DIRECTION('center_axis',(-1.,0.,0.));
#394=DIRECTION('ref_axis',(0.,-0.382683432365091,0.923879532511286));
#395=DIRECTION('',(-1.,0.,0.));
#396=DIRECTION('center_axis',(1.,0.,0.));
#397=DIRECTION('ref_axis',(0.,-0.382683432365091,0.923879532511286));
#398=DIRECTION('',(1.,0.,0.));
#399=DIRECTION('center_axis',(1.,0.,0.));
#400=DIRECTION('ref_axis',(0.,1.,0.));
#401=DIRECTION('',(0.,-1.,0.));
#402=DIRECTION('center_axis',(1.,0.,0.));
#403=DIRECTION('ref_axis',(0.,0.707106781186548,0.707106781186548));
#404=DIRECTION('',(0.,0.,-1.));
#405=DIRECTION('center_axis',(1.,0.,0.));
#406=DIRECTION('ref_axis',(0.,0.707106781186548,-0.707106781186548));
#407=DIRECTION('',(0.,-1.,0.));
#408=DIRECTION('center_axis',(1.,0.,0.));
#409=DIRECTION('ref_axis',(0.,-0.707106781186544,-0.707106781186551));
#410=DIRECTION('',(0.,0.,1.));
#411=DIRECTION('center_axis',(1.,0.,0.));
#412=DIRECTION('ref_axis',(0.,-0.923879532511287,0.38268343236509));
#413=DIRECTION('',(0.,-0.707106781186548,-0.707106781186548));
#414=DIRECTION('center_axis',(-1.,0.,0.));
#415=DIRECTION('ref_axis',(0.,1.,0.));
#416=DIRECTION('center_axis',(-1.,0.,0.));
#417=DIRECTION('ref_axis',(0.,1.,0.));
#418=DIRECTION('center_axis',(-1.,0.,0.));
#419=DIRECTION('ref_axis',(0.,1.,0.));
#420=DIRECTION('center_axis',(-1.,0.,0.));
#421=DIRECTION('ref_axis',(0.,1.,0.));
#422=DIRECTION('center_axis',(-1.,0.,0.));
#423=DIRECTION('ref_axis',(0.,1.,0.));
#424=DIRECTION('center_axis',(0.,0.,1.));
#425=DIRECTION('ref_axis',(0.,-1.,0.));
#426=DIRECTION('',(0.,-1.,0.));
#427=DIRECTION('',(1.,0.,0.));
#428=DIRECTION('center_axis',(1.,0.,0.));
#429=DIRECTION('ref_axis',(0.,0.707106781186548,0.707106781186548));
#430=DIRECTION('center_axis',(-1.,0.,0.));
#431=DIRECTION('ref_axis',(0.,0.707106781186548,0.707106781186548));
#432=DIRECTION('',(-1.,0.,0.));
#433=DIRECTION('center_axis',(1.,0.,0.));
#434=DIRECTION('ref_axis',(0.,-0.923879532511287,0.38268343236509));
#435=DIRECTION('center_axis',(-1.,0.,0.));
#436=DIRECTION('ref_axis',(0.,-0.923879532511287,0.38268343236509));
#437=DIRECTION('',(-1.,0.,0.));
#438=DIRECTION('',(1.,0.,0.));
#439=DIRECTION('center_axis',(0.,-1.,0.));
#440=DIRECTION('ref_axis',(0.,0.,-1.));
#441=DIRECTION('',(-1.,0.,0.));
#442=DIRECTION('',(0.,0.,-1.));
#443=DIRECTION('center_axis',(1.,0.,0.));
#444=DIRECTION('ref_axis',(0.,-0.707106781186544,-0.707106781186551));
#445=DIRECTION('center_axis',(-1.,0.,0.));
#446=DIRECTION('ref_axis',(0.,-0.707106781186544,-0.707106781186551));
#447=DIRECTION('',(1.,0.,0.));
#448=DIRECTION('center_axis',(0.,0.,-1.));
#449=DIRECTION('ref_axis',(0.,1.,0.));
#450=DIRECTION('',(-1.,0.,0.));
#451=DIRECTION('',(0.,1.,0.));
#452=DIRECTION('center_axis',(1.,0.,0.));
#453=DIRECTION('ref_axis',(0.,0.707106781186548,-0.707106781186548));
#454=DIRECTION('center_axis',(-1.,0.,0.));
#455=DIRECTION('ref_axis',(0.,0.707106781186548,-0.707106781186548));
#456=DIRECTION('',(1.,0.,0.));
#457=DIRECTION('center_axis',(1.,0.,0.));
#458=DIRECTION('ref_axis',(0.,1.,0.));
#459=DIRECTION('center_axis',(-1.,0.,0.));
#460=DIRECTION('ref_axis',(0.,1.,0.));
#461=DIRECTION('',(-1.,0.,0.));
#462=DIRECTION('center_axis',(1.,0.,0.));
#463=DIRECTION('ref_axis',(0.,1.,0.));
#464=DIRECTION('center_axis',(-1.,0.,0.));
#465=DIRECTION('ref_axis',(0.,1.,0.));
#466=DIRECTION('',(-1.,0.,0.));
#467=DIRECTION('center_axis',(1.,0.,0.));
#468=DIRECTION('ref_axis',(0.,1.,0.));
#469=DIRECTION('center_axis',(-1.,0.,0.));
#470=DIRECTION('ref_axis',(0.,1.,0.));
#471=DIRECTION('',(-1.,0.,0.));
#472=DIRECTION('center_axis',(1.,0.,0.));
#473=DIRECTION('ref_axis',(0.,1.,0.));
#474=DIRECTION('center_axis',(-1.,0.,0.));
#475=DIRECTION('ref_axis',(0.,1.,0.));
#476=DIRECTION('',(-1.,0.,0.));
#477=DIRECTION('center_axis',(1.,0.,0.));
#478=DIRECTION('ref_axis',(0.,1.,0.));
#479=DIRECTION('center_axis',(-1.,0.,0.));
#480=DIRECTION('ref_axis',(0.,1.,0.));
#481=DIRECTION('',(-1.,0.,0.));
#482=DIRECTION('center_axis',(0.,1.,0.));
#483=DIRECTION('ref_axis',(0.,0.,1.));
#484=DIRECTION('',(0.,0.,1.));
#485=DIRECTION('center_axis',(0.,-0.707106781186548,0.707106781186548));
#486=DIRECTION('ref_axis',(0.,-0.707106781186548,-0.707106781186548));
#487=DIRECTION('',(0.,-0.707106781186548,-0.707106781186548));
#488=DIRECTION('center_axis',(1.,0.,0.));
#489=DIRECTION('ref_axis',(0.,1.,0.));
#490=CARTESIAN_POINT('',(0.,0.,0.));
#491=CARTESIAN_POINT('Origin',(0.,2.01941057133368,58.1820751950545));
#492=CARTESIAN_POINT('',(4.,1.31230379014713,58.8891819762411));
#493=CARTESIAN_POINT('',(4.,2.01941057133368,59.1820751950545));
#494=CARTESIAN_POINT('Origin',(4.,2.01941057133368,58.1820751950545));
#495=CARTESIAN_POINT('',(0.,2.01941057133368,59.1820751950545));
#496=CARTESIAN_POINT('',(0.,2.01941057133368,59.1820751950545));
#497=CARTESIAN_POINT('',(0.,1.31230379014713,58.8891819762411));
#498=CARTESIAN_POINT('Origin',(0.,2.01941057133368,58.1820751950545));
#499=CARTESIAN_POINT('',(0.,1.31230379014713,58.8891819762411));
#500=CARTESIAN_POINT('Origin',(0.,-13.3948029910394,14.1820751950545));
#501=CARTESIAN_POINT('',(0.,30.6051970089606,59.1820751950545));
#502=CARTESIAN_POINT('',(0.,31.6051970089606,59.1820751950545));
#503=CARTESIAN_POINT('',(0.,31.6051970089606,58.1820751950545));
#504=CARTESIAN_POINT('Origin',(0.,30.6051970089606,58.1820751950545));
#505=CARTESIAN_POINT('',(0.,31.6051970089606,-29.8179248049455));
#506=CARTESIAN_POINT('',(0.,31.6051970089606,59.1820751950545));
#507=CARTESIAN_POINT('',(0.,30.6051970089606,-30.8179248049455));
#508=CARTESIAN_POINT('Origin',(0.,30.6051970089606,-29.8179248049455));
#509=CARTESIAN_POINT('',(0.,-57.3948029910394,-30.8179248049455));
#510=CARTESIAN_POINT('',(0.,31.6051970089606,-30.8179248049455));
#511=CARTESIAN_POINT('',(0.,-58.3948029910394,-29.8179248049455));
#512=CARTESIAN_POINT('Origin',(0.,-57.3948029910394,-29.8179248049455));
#513=CARTESIAN_POINT('',(0.,-58.3948029910394,-1.23213836731857));
#514=CARTESIAN_POINT('',(0.,-58.3948029910394,-30.8179248049455));
#515=CARTESIAN_POINT('',(0.,-58.101909772226,-0.525031586132023));
#516=CARTESIAN_POINT('Origin',(0.,-57.3948029910394,-1.23213836731857));
#517=CARTESIAN_POINT('',(0.,1.60519700896058,59.1820751950545));
#518=CARTESIAN_POINT('',(0.,13.5051970089606,44.1820751950545));
#519=CARTESIAN_POINT('Origin',(0.,16.6051970089606,44.1820751950545));
#520=CARTESIAN_POINT('',(0.,13.5051970089606,14.1820751950545));
#521=CARTESIAN_POINT('Origin',(0.,16.6051970089606,14.1820751950545));
#522=CARTESIAN_POINT('',(0.,-46.4948029910394,-15.8179248049455));
#523=CARTESIAN_POINT('Origin',(0.,-43.3948029910394,-15.8179248049455));
#524=CARTESIAN_POINT('',(0.,13.5051970089606,-15.8179248049455));
#525=CARTESIAN_POINT('Origin',(0.,16.6051970089606,-15.8179248049455));
#526=CARTESIAN_POINT('',(0.,-16.4948029910394,-15.8179248049455));
#527=CARTESIAN_POINT('Origin',(0.,-13.3948029910394,-15.8179248049455));
#528=CARTESIAN_POINT('Origin',(0.,31.6051970089606,59.1820751950545));
#529=CARTESIAN_POINT('',(4.,30.6051970089606,59.1820751950545));
#530=CARTESIAN_POINT('',(4.,31.6051970089606,59.1820751950545));
#531=CARTESIAN_POINT('',(0.,30.6051970089606,59.1820751950545));
#532=CARTESIAN_POINT('Origin',(0.,30.6051970089606,58.1820751950545));
#533=CARTESIAN_POINT('',(4.,31.6051970089606,58.1820751950545));
#534=CARTESIAN_POINT('Origin',(4.,30.6051970089606,58.1820751950545));
#535=CARTESIAN_POINT('',(0.,31.6051970089606,58.1820751950545));
#536=CARTESIAN_POINT('Origin',(0.,-57.3948029910394,-1.23213836731857));
#537=CARTESIAN_POINT('',(4.,-58.3948029910394,-1.23213836731857));
#538=CARTESIAN_POINT('',(4.,-58.101909772226,-0.525031586132023));
#539=CARTESIAN_POINT('Origin',(4.,-57.3948029910394,-1.23213836731857));
#540=CARTESIAN_POINT('',(0.,-58.101909772226,-0.525031586132024));
#541=CARTESIAN_POINT('',(0.,-58.3948029910394,-1.23213836731857));
#542=CARTESIAN_POINT('Origin',(0.,-58.3948029910394,-0.817924804945473));
#543=CARTESIAN_POINT('',(4.,-58.3948029910394,-29.8179248049455));
#544=CARTESIAN_POINT('',(0.,-58.3948029910394,-29.8179248049455));
#545=CARTESIAN_POINT('',(4.,-58.3948029910394,-30.8179248049455));
#546=CARTESIAN_POINT('Origin',(0.,-57.3948029910394,-29.8179248049455));
#547=CARTESIAN_POINT('',(4.,-57.3948029910394,-30.8179248049455));
#548=CARTESIAN_POINT('Origin',(4.,-57.3948029910394,-29.8179248049455));
#549=CARTESIAN_POINT('',(0.,-57.3948029910394,-30.8179248049455));
#550=CARTESIAN_POINT('Origin',(0.,-58.3948029910394,-30.8179248049455));
#551=CARTESIAN_POINT('',(4.,30.6051970089606,-30.8179248049455));
#552=CARTESIAN_POINT('',(0.,30.6051970089606,-30.8179248049455));
#553=CARTESIAN_POINT('',(4.,31.6051970089606,-30.8179248049455));
#554=CARTESIAN_POINT('Origin',(0.,30.6051970089606,-29.8179248049455));
#555=CARTESIAN_POINT('',(4.,31.6051970089606,-29.8179248049455));
#556=CARTESIAN_POINT('Origin',(4.,30.6051970089606,-29.8179248049455));
#557=CARTESIAN_POINT('',(0.,31.6051970089606,-29.8179248049455));
#558=CARTESIAN_POINT('Origin',(0.,16.6051970089606,44.1820751950545));
#559=CARTESIAN_POINT('',(4.,13.5051970089606,44.1820751950545));
#560=CARTESIAN_POINT('Origin',(4.,16.6051970089606,44.1820751950545));
#561=CARTESIAN_POINT('',(0.,13.5051970089606,44.1820751950545));
#562=CARTESIAN_POINT('Origin',(0.,16.6051970089606,14.1820751950545));
#563=CARTESIAN_POINT('',(4.,13.5051970089606,14.1820751950545));
#564=CARTESIAN_POINT('Origin',(4.,16.6051970089606,14.1820751950545));
#565=CARTESIAN_POINT('',(0.,13.5051970089606,14.1820751950545));
#566=CARTESIAN_POINT('Origin',(0.,-43.3948029910394,-15.8179248049455));
#567=CARTESIAN_POINT('',(4.,-46.4948029910394,-15.8179248049455));
#568=CARTESIAN_POINT('Origin',(4.,-43.3948029910394,-15.8179248049455));
#569=CARTESIAN_POINT('',(0.,-46.4948029910394,-15.8179248049455));
#570=CARTESIAN_POINT('Origin',(0.,16.6051970089606,-15.8179248049455));
#571=CARTESIAN_POINT('',(4.,13.5051970089606,-15.8179248049455));
#572=CARTESIAN_POINT('Origin',(4.,16.6051970089606,-15.8179248049455));
#573=CARTESIAN_POINT('',(0.,13.5051970089606,-15.8179248049455));
#574=CARTESIAN_POINT('Origin',(0.,-13.3948029910394,-15.8179248049455));
#575=CARTESIAN_POINT('',(4.,-16.4948029910394,-15.8179248049455));
#576=CARTESIAN_POINT('Origin',(4.,-13.3948029910394,-15.8179248049455));
#577=CARTESIAN_POINT('',(0.,-16.4948029910394,-15.8179248049455));
#578=CARTESIAN_POINT('Origin',(0.,31.6051970089606,-30.8179248049455));
#579=CARTESIAN_POINT('',(4.,31.6051970089606,59.1820751950545));
#580=CARTESIAN_POINT('Origin',(0.,1.60519700896058,59.1820751950545));
#581=CARTESIAN_POINT('',(4.,1.60519700896058,59.1820751950545));
#582=CARTESIAN_POINT('Origin',(4.,-13.3948029910394,14.1820751950545));
#583=UNCERTAINTY_MEASURE_WITH_UNIT(LENGTH_MEASURE(0.01),#587,
'DISTANCE_ACCURACY_VALUE',
'Maximum model space distance between geometric entities at asserted c
onnectivities');
#584=UNCERTAINTY_MEASURE_WITH_UNIT(LENGTH_MEASURE(0.01),#587,
'DISTANCE_ACCURACY_VALUE',
'Maximum model space distance between geometric entities at asserted c
onnectivities');
#585=(
GEOMETRIC_REPRESENTATION_CONTEXT(3)
GLOBAL_UNCERTAINTY_ASSIGNED_CONTEXT((#583))
GLOBAL_UNIT_ASSIGNED_CONTEXT((#587,#589,#590))
REPRESENTATION_CONTEXT('','3D')
);
#586=(
GEOMETRIC_REPRESENTATION_CONTEXT(3)
GLOBAL_UNCERTAINTY_ASSIGNED_CONTEXT((#584))
GLOBAL_UNIT_ASSIGNED_CONTEXT((#587,#589,#590))
REPRESENTATION_CONTEXT('','3D')
);
#587=(
LENGTH_UNIT()
NAMED_UNIT(*)
SI_UNIT(.MILLI.,.METRE.)
);
#588=(
LENGTH_UNIT()
NAMED_UNIT(*)
SI_UNIT($,.METRE.)
);
#589=(
NAMED_UNIT(*)
PLANE_ANGLE_UNIT()
SI_UNIT($,.RADIAN.)
);
#590=(
NAMED_UNIT(*)
SI_UNIT($,.STERADIAN.)
SOLID_ANGLE_UNIT()
);
#591=SHAPE_DEFINITION_REPRESENTATION(#592,#593);
#592=PRODUCT_DEFINITION_SHAPE('',$,#595);
#593=SHAPE_REPRESENTATION('',(#351),#585);
#594=PRODUCT_DEFINITION_CONTEXT('part definition',#599,'design');
#595=PRODUCT_DEFINITION('HW1915PC',
'Joining Plate for 3030 - 90 Degree - Black Anodized v1',#596,#594);
#596=PRODUCT_DEFINITION_FORMATION('',$,#601);
#597=PRODUCT_RELATED_PRODUCT_CATEGORY(
'Joining Plate for 3030 - 90 Degree - Black Anodized v1',
'Joining Plate for 3030 - 90 Degree - Black Anodized v1',(#601));
#598=APPLICATION_PROTOCOL_DEFINITION('international standard',
'automotive_design',2009,#599);
#599=APPLICATION_CONTEXT(
'Core Data for Automotive Mechanical Design Process');
#600=PRODUCT_CONTEXT('part definition',#599,'mechanical');
#601=PRODUCT('HW1915PC',
'Joining Plate for 3030 - 90 Degree - Black Anodized v1',$,(#600));
#602=PRESENTATION_STYLE_ASSIGNMENT((#603));
#603=SURFACE_STYLE_USAGE(.BOTH.,#604);
#604=SURFACE_SIDE_STYLE('',(#605));
#605=SURFACE_STYLE_FILL_AREA(#606);
#606=FILL_AREA_STYLE('Powder Coat (Black)',(#607));
#607=FILL_AREA_STYLE_COLOUR('Powder Coat (Black)',#608);
#608=COLOUR_RGB('Powder Coat (Black)',0.0980392156862745,0.0980392156862745,
0.0980392156862745);
ENDSEC;
END-ISO-10303-21;
