ISO-10303-21;
HEADER;
/* Generated by software containing ST-Developer
 * from STEP Tools, Inc. (www.steptools.com) 
 */

FILE_DESCRIPTION(
/* description */ (''),
/* implementation_level */ '2;1');

FILE_NAME(
/* name */ 
'C:/Users/NexxCat/Documents/GitHub/lab.ratrig.com/docs/src/cad/HW2979G
C-HTD3M 15mm Belt Loop - 210mm.step',
/* time_stamp */ '2022-09-19T15:19:13+01:00',
/* author */ (''),
/* organization */ (''),
/* preprocessor_version */ 'ST-DEVELOPER v19',
/* originating_system */ 'Autodesk Translation Framework v11.7.0.108',
/* authorisation */ '');

FILE_SCHEMA (('AUTOMOTIVE_DESIGN { 1 0 10303 214 3 1 1 }'));
ENDSEC;

DATA;
#10=MECHANICAL_DESIGN_GEOMETRIC_PRESENTATION_REPRESENTATION('',(#13),#327);
#11=SHAPE_REPRESENTATION_RELATIONSHIP('SRR','None',#334,#12);
#12=ADVANCED_BREP_SHAPE_REPRESENTATION('',(#14),#326);
#13=STYLED_ITEM('',(#343),#14);
#14=MANIFOLD_SOLID_BREP('Body1',#187);
#15=CYLINDRICAL_SURFACE('',#207,12.805);
#16=CYLINDRICAL_SURFACE('',#210,12.805);
#17=CYLINDRICAL_SURFACE('',#213,15.205);
#18=CYLINDRICAL_SURFACE('',#216,15.205);
#19=FACE_BOUND('',#32,.T.);
#20=FACE_BOUND('',#42,.T.);
#21=FACE_OUTER_BOUND('',#31,.T.);
#22=FACE_OUTER_BOUND('',#33,.T.);
#23=FACE_OUTER_BOUND('',#34,.T.);
#24=FACE_OUTER_BOUND('',#35,.T.);
#25=FACE_OUTER_BOUND('',#36,.T.);
#26=FACE_OUTER_BOUND('',#37,.T.);
#27=FACE_OUTER_BOUND('',#38,.T.);
#28=FACE_OUTER_BOUND('',#39,.T.);
#29=FACE_OUTER_BOUND('',#40,.T.);
#30=FACE_OUTER_BOUND('',#41,.T.);
#31=EDGE_LOOP('',(#123,#124,#125,#126));
#32=EDGE_LOOP('',(#127,#128,#129,#130));
#33=EDGE_LOOP('',(#131,#132,#133,#134));
#34=EDGE_LOOP('',(#135,#136,#137,#138));
#35=EDGE_LOOP('',(#139,#140,#141,#142));
#36=EDGE_LOOP('',(#143,#144,#145,#146));
#37=EDGE_LOOP('',(#147,#148,#149,#150));
#38=EDGE_LOOP('',(#151,#152,#153,#154));
#39=EDGE_LOOP('',(#155,#156,#157,#158));
#40=EDGE_LOOP('',(#159,#160,#161,#162));
#41=EDGE_LOOP('',(#163,#164,#165,#166));
#42=EDGE_LOOP('',(#167,#168,#169,#170));
#43=LINE('',#279,#59);
#44=LINE('',#282,#60);
#45=LINE('',#287,#61);
#46=LINE('',#290,#62);
#47=LINE('',#293,#63);
#48=LINE('',#295,#64);
#49=LINE('',#296,#65);
#50=LINE('',#300,#66);
#51=LINE('',#303,#67);
#52=LINE('',#304,#68);
#53=LINE('',#309,#69);
#54=LINE('',#311,#70);
#55=LINE('',#312,#71);
#56=LINE('',#316,#72);
#57=LINE('',#319,#73);
#58=LINE('',#320,#74);
#59=VECTOR('',#225,10.);
#60=VECTOR('',#228,10.);
#61=VECTOR('',#231,10.);
#62=VECTOR('',#234,10.);
#63=VECTOR('',#237,10.);
#64=VECTOR('',#238,10.);
#65=VECTOR('',#239,10.);
#66=VECTOR('',#244,10.);
#67=VECTOR('',#247,10.);
#68=VECTOR('',#248,10.);
#69=VECTOR('',#255,10.);
#70=VECTOR('',#256,10.);
#71=VECTOR('',#257,10.);
#72=VECTOR('',#262,10.);
#73=VECTOR('',#265,10.);
#74=VECTOR('',#266,10.);
#75=CIRCLE('',#202,15.205);
#76=CIRCLE('',#203,15.205);
#77=CIRCLE('',#204,12.805);
#78=CIRCLE('',#205,12.805);
#79=CIRCLE('',#208,12.805);
#80=CIRCLE('',#211,12.805);
#81=CIRCLE('',#214,15.205);
#82=CIRCLE('',#217,15.205);
#83=VERTEX_POINT('',#275);
#84=VERTEX_POINT('',#276);
#85=VERTEX_POINT('',#278);
#86=VERTEX_POINT('',#280);
#87=VERTEX_POINT('',#283);
#88=VERTEX_POINT('',#284);
#89=VERTEX_POINT('',#286);
#90=VERTEX_POINT('',#288);
#91=VERTEX_POINT('',#292);
#92=VERTEX_POINT('',#294);
#93=VERTEX_POINT('',#298);
#94=VERTEX_POINT('',#302);
#95=VERTEX_POINT('',#308);
#96=VERTEX_POINT('',#310);
#97=VERTEX_POINT('',#314);
#98=VERTEX_POINT('',#318);
#99=EDGE_CURVE('',#83,#84,#75,.T.);
#100=EDGE_CURVE('',#84,#85,#43,.T.);
#101=EDGE_CURVE('',#85,#86,#76,.T.);
#102=EDGE_CURVE('',#86,#83,#44,.T.);
#103=EDGE_CURVE('',#87,#88,#77,.T.);
#104=EDGE_CURVE('',#88,#89,#45,.T.);
#105=EDGE_CURVE('',#89,#90,#78,.T.);
#106=EDGE_CURVE('',#90,#87,#46,.T.);
#107=EDGE_CURVE('',#91,#88,#47,.T.);
#108=EDGE_CURVE('',#92,#91,#48,.T.);
#109=EDGE_CURVE('',#89,#92,#49,.T.);
#110=EDGE_CURVE('',#93,#92,#79,.T.);
#111=EDGE_CURVE('',#90,#93,#50,.T.);
#112=EDGE_CURVE('',#94,#93,#51,.T.);
#113=EDGE_CURVE('',#87,#94,#52,.T.);
#114=EDGE_CURVE('',#91,#94,#80,.T.);
#115=EDGE_CURVE('',#95,#84,#53,.T.);
#116=EDGE_CURVE('',#96,#95,#54,.T.);
#117=EDGE_CURVE('',#85,#96,#55,.T.);
#118=EDGE_CURVE('',#97,#96,#81,.T.);
#119=EDGE_CURVE('',#86,#97,#56,.T.);
#120=EDGE_CURVE('',#98,#97,#57,.T.);
#121=EDGE_CURVE('',#83,#98,#58,.T.);
#122=EDGE_CURVE('',#95,#98,#82,.T.);
#123=ORIENTED_EDGE('',*,*,#99,.T.);
#124=ORIENTED_EDGE('',*,*,#100,.T.);
#125=ORIENTED_EDGE('',*,*,#101,.T.);
#126=ORIENTED_EDGE('',*,*,#102,.T.);
#127=ORIENTED_EDGE('',*,*,#103,.T.);
#128=ORIENTED_EDGE('',*,*,#104,.T.);
#129=ORIENTED_EDGE('',*,*,#105,.T.);
#130=ORIENTED_EDGE('',*,*,#106,.T.);
#131=ORIENTED_EDGE('',*,*,#107,.F.);
#132=ORIENTED_EDGE('',*,*,#108,.F.);
#133=ORIENTED_EDGE('',*,*,#109,.F.);
#134=ORIENTED_EDGE('',*,*,#104,.F.);
#135=ORIENTED_EDGE('',*,*,#109,.T.);
#136=ORIENTED_EDGE('',*,*,#110,.F.);
#137=ORIENTED_EDGE('',*,*,#111,.F.);
#138=ORIENTED_EDGE('',*,*,#105,.F.);
#139=ORIENTED_EDGE('',*,*,#111,.T.);
#140=ORIENTED_EDGE('',*,*,#112,.F.);
#141=ORIENTED_EDGE('',*,*,#113,.F.);
#142=ORIENTED_EDGE('',*,*,#106,.F.);
#143=ORIENTED_EDGE('',*,*,#113,.T.);
#144=ORIENTED_EDGE('',*,*,#114,.F.);
#145=ORIENTED_EDGE('',*,*,#107,.T.);
#146=ORIENTED_EDGE('',*,*,#103,.F.);
#147=ORIENTED_EDGE('',*,*,#115,.F.);
#148=ORIENTED_EDGE('',*,*,#116,.F.);
#149=ORIENTED_EDGE('',*,*,#117,.F.);
#150=ORIENTED_EDGE('',*,*,#100,.F.);
#151=ORIENTED_EDGE('',*,*,#117,.T.);
#152=ORIENTED_EDGE('',*,*,#118,.F.);
#153=ORIENTED_EDGE('',*,*,#119,.F.);
#154=ORIENTED_EDGE('',*,*,#101,.F.);
#155=ORIENTED_EDGE('',*,*,#119,.T.);
#156=ORIENTED_EDGE('',*,*,#120,.F.);
#157=ORIENTED_EDGE('',*,*,#121,.F.);
#158=ORIENTED_EDGE('',*,*,#102,.F.);
#159=ORIENTED_EDGE('',*,*,#121,.T.);
#160=ORIENTED_EDGE('',*,*,#122,.F.);
#161=ORIENTED_EDGE('',*,*,#115,.T.);
#162=ORIENTED_EDGE('',*,*,#99,.F.);
#163=ORIENTED_EDGE('',*,*,#122,.T.);
#164=ORIENTED_EDGE('',*,*,#120,.T.);
#165=ORIENTED_EDGE('',*,*,#118,.T.);
#166=ORIENTED_EDGE('',*,*,#116,.T.);
#167=ORIENTED_EDGE('',*,*,#114,.T.);
#168=ORIENTED_EDGE('',*,*,#112,.T.);
#169=ORIENTED_EDGE('',*,*,#110,.T.);
#170=ORIENTED_EDGE('',*,*,#108,.T.);
#171=PLANE('',#201);
#172=PLANE('',#206);
#173=PLANE('',#209);
#174=PLANE('',#212);
#175=PLANE('',#215);
#176=PLANE('',#218);
#177=ADVANCED_FACE('',(#21,#19),#171,.F.);
#178=ADVANCED_FACE('',(#22),#172,.T.);
#179=ADVANCED_FACE('',(#23),#15,.F.);
#180=ADVANCED_FACE('',(#24),#173,.T.);
#181=ADVANCED_FACE('',(#25),#16,.F.);
#182=ADVANCED_FACE('',(#26),#174,.T.);
#183=ADVANCED_FACE('',(#27),#17,.T.);
#184=ADVANCED_FACE('',(#28),#175,.T.);
#185=ADVANCED_FACE('',(#29),#18,.T.);
#186=ADVANCED_FACE('',(#30,#20),#176,.T.);
#187=CLOSED_SHELL('',(#177,#178,#179,#180,#181,#182,#183,#184,#185,#186));
#188=DERIVED_UNIT_ELEMENT(#190,1.);
#189=DERIVED_UNIT_ELEMENT(#329,-3.);
#190=(
MASS_UNIT()
NAMED_UNIT(*)
SI_UNIT(.KILO.,.GRAM.)
);
#191=DERIVED_UNIT((#188,#189));
#192=MEASURE_REPRESENTATION_ITEM('density measure',
POSITIVE_RATIO_MEASURE(120.),#191);
#193=PROPERTY_DEFINITION_REPRESENTATION(#198,#195);
#194=PROPERTY_DEFINITION_REPRESENTATION(#199,#196);
#195=REPRESENTATION('material name',(#197),#326);
#196=REPRESENTATION('density',(#192),#326);
#197=DESCRIPTIVE_REPRESENTATION_ITEM('Rubber, Butyl','Rubber, Butyl');
#198=PROPERTY_DEFINITION('material property','material name',#336);
#199=PROPERTY_DEFINITION('material property','density of part',#336);
#200=AXIS2_PLACEMENT_3D('placement',#273,#219,#220);
#201=AXIS2_PLACEMENT_3D('',#274,#221,#222);
#202=AXIS2_PLACEMENT_3D('',#277,#223,#224);
#203=AXIS2_PLACEMENT_3D('',#281,#226,#227);
#204=AXIS2_PLACEMENT_3D('',#285,#229,#230);
#205=AXIS2_PLACEMENT_3D('',#289,#232,#233);
#206=AXIS2_PLACEMENT_3D('',#291,#235,#236);
#207=AXIS2_PLACEMENT_3D('',#297,#240,#241);
#208=AXIS2_PLACEMENT_3D('',#299,#242,#243);
#209=AXIS2_PLACEMENT_3D('',#301,#245,#246);
#210=AXIS2_PLACEMENT_3D('',#305,#249,#250);
#211=AXIS2_PLACEMENT_3D('',#306,#251,#252);
#212=AXIS2_PLACEMENT_3D('',#307,#253,#254);
#213=AXIS2_PLACEMENT_3D('',#313,#258,#259);
#214=AXIS2_PLACEMENT_3D('',#315,#260,#261);
#215=AXIS2_PLACEMENT_3D('',#317,#263,#264);
#216=AXIS2_PLACEMENT_3D('',#321,#267,#268);
#217=AXIS2_PLACEMENT_3D('',#322,#269,#270);
#218=AXIS2_PLACEMENT_3D('',#323,#271,#272);
#219=DIRECTION('axis',(0.,0.,1.));
#220=DIRECTION('refdir',(1.,0.,0.));
#221=DIRECTION('center_axis',(0.,0.,1.));
#222=DIRECTION('ref_axis',(1.,0.,0.));
#223=DIRECTION('center_axis',(0.,0.,-1.));
#224=DIRECTION('ref_axis',(1.,0.,0.));
#225=DIRECTION('',(0.,-1.,0.));
#226=DIRECTION('center_axis',(0.,0.,-1.));
#227=DIRECTION('ref_axis',(-1.,0.,0.));
#228=DIRECTION('',(0.,1.,0.));
#229=DIRECTION('center_axis',(0.,0.,1.));
#230=DIRECTION('ref_axis',(1.,0.,0.));
#231=DIRECTION('',(0.,-1.,0.));
#232=DIRECTION('center_axis',(0.,0.,1.));
#233=DIRECTION('ref_axis',(-1.,0.,0.));
#234=DIRECTION('',(0.,1.,0.));
#235=DIRECTION('center_axis',(1.,0.,0.));
#236=DIRECTION('ref_axis',(0.,1.,0.));
#237=DIRECTION('',(0.,0.,-1.));
#238=DIRECTION('',(0.,1.,0.));
#239=DIRECTION('',(0.,0.,1.));
#240=DIRECTION('center_axis',(0.,0.,1.));
#241=DIRECTION('ref_axis',(-1.,0.,0.));
#242=DIRECTION('center_axis',(0.,0.,-1.));
#243=DIRECTION('ref_axis',(-1.,0.,0.));
#244=DIRECTION('',(0.,0.,1.));
#245=DIRECTION('center_axis',(-1.,0.,0.));
#246=DIRECTION('ref_axis',(0.,-1.,0.));
#247=DIRECTION('',(0.,-1.,0.));
#248=DIRECTION('',(0.,0.,1.));
#249=DIRECTION('center_axis',(0.,0.,1.));
#250=DIRECTION('ref_axis',(1.,0.,0.));
#251=DIRECTION('center_axis',(0.,0.,-1.));
#252=DIRECTION('ref_axis',(1.,0.,0.));
#253=DIRECTION('center_axis',(1.,0.,0.));
#254=DIRECTION('ref_axis',(0.,1.,0.));
#255=DIRECTION('',(0.,0.,-1.));
#256=DIRECTION('',(0.,1.,0.));
#257=DIRECTION('',(0.,0.,1.));
#258=DIRECTION('center_axis',(0.,0.,1.));
#259=DIRECTION('ref_axis',(-1.,0.,0.));
#260=DIRECTION('center_axis',(0.,0.,1.));
#261=DIRECTION('ref_axis',(-1.,0.,0.));
#262=DIRECTION('',(0.,0.,1.));
#263=DIRECTION('center_axis',(-1.,0.,0.));
#264=DIRECTION('ref_axis',(0.,-1.,0.));
#265=DIRECTION('',(0.,-1.,0.));
#266=DIRECTION('',(0.,0.,1.));
#267=DIRECTION('center_axis',(0.,0.,1.));
#268=DIRECTION('ref_axis',(1.,0.,0.));
#269=DIRECTION('center_axis',(0.,0.,1.));
#270=DIRECTION('ref_axis',(1.,0.,0.));
#271=DIRECTION('center_axis',(0.,0.,1.));
#272=DIRECTION('ref_axis',(1.,0.,0.));
#273=CARTESIAN_POINT('',(0.,0.,0.));
#274=CARTESIAN_POINT('Origin',(0.,-2.23517417907715E-7,-7.5));
#275=CARTESIAN_POINT('',(-15.205,30.,-7.5));
#276=CARTESIAN_POINT('',(15.205,30.,-7.5));
#277=CARTESIAN_POINT('Origin',(0.,30.,-7.5));
#278=CARTESIAN_POINT('',(15.205,-30.0000004470348,-7.5));
#279=CARTESIAN_POINT('',(15.205,30.,-7.5));
#280=CARTESIAN_POINT('',(-15.205,-30.0000004470348,-7.5));
#281=CARTESIAN_POINT('Origin',(0.,-30.0000004470348,-7.5));
#282=CARTESIAN_POINT('',(-15.205,30.,-7.5));
#283=CARTESIAN_POINT('',(12.805,30.,-7.5));
#284=CARTESIAN_POINT('',(-12.805,30.,-7.5));
#285=CARTESIAN_POINT('Origin',(0.,30.,-7.5));
#286=CARTESIAN_POINT('',(-12.805,-30.0000004470348,-7.5));
#287=CARTESIAN_POINT('',(-12.805,30.,-7.5));
#288=CARTESIAN_POINT('',(12.805,-30.0000004470348,-7.5));
#289=CARTESIAN_POINT('Origin',(0.,-30.0000004470348,-7.5));
#290=CARTESIAN_POINT('',(12.805,30.,-7.5));
#291=CARTESIAN_POINT('Origin',(-12.805,-30.0000004470348,0.));
#292=CARTESIAN_POINT('',(-12.805,30.,7.5));
#293=CARTESIAN_POINT('',(-12.805,30.,0.));
#294=CARTESIAN_POINT('',(-12.805,-30.0000004470348,7.5));
#295=CARTESIAN_POINT('',(-12.805,30.,7.5));
#296=CARTESIAN_POINT('',(-12.805,-30.0000004470348,0.));
#297=CARTESIAN_POINT('Origin',(0.,-30.0000004470348,0.));
#298=CARTESIAN_POINT('',(12.805,-30.0000004470348,7.5));
#299=CARTESIAN_POINT('Origin',(0.,-30.0000004470348,7.5));
#300=CARTESIAN_POINT('',(12.805,-30.0000004470348,0.));
#301=CARTESIAN_POINT('Origin',(12.805,30.,0.));
#302=CARTESIAN_POINT('',(12.805,30.,7.5));
#303=CARTESIAN_POINT('',(12.805,30.,7.5));
#304=CARTESIAN_POINT('',(12.805,30.,0.));
#305=CARTESIAN_POINT('Origin',(0.,30.,0.));
#306=CARTESIAN_POINT('Origin',(0.,30.,7.5));
#307=CARTESIAN_POINT('Origin',(15.205,-30.0000004470348,0.));
#308=CARTESIAN_POINT('',(15.205,30.,7.5));
#309=CARTESIAN_POINT('',(15.205,30.,0.));
#310=CARTESIAN_POINT('',(15.205,-30.0000004470348,7.5));
#311=CARTESIAN_POINT('',(15.205,30.,7.5));
#312=CARTESIAN_POINT('',(15.205,-30.0000004470348,0.));
#313=CARTESIAN_POINT('Origin',(0.,-30.0000004470348,0.));
#314=CARTESIAN_POINT('',(-15.205,-30.0000004470348,7.5));
#315=CARTESIAN_POINT('Origin',(0.,-30.0000004470348,7.5));
#316=CARTESIAN_POINT('',(-15.205,-30.0000004470348,0.));
#317=CARTESIAN_POINT('Origin',(-15.205,30.,0.));
#318=CARTESIAN_POINT('',(-15.205,30.,7.5));
#319=CARTESIAN_POINT('',(-15.205,30.,7.5));
#320=CARTESIAN_POINT('',(-15.205,30.,0.));
#321=CARTESIAN_POINT('Origin',(0.,30.,0.));
#322=CARTESIAN_POINT('Origin',(0.,30.,7.5));
#323=CARTESIAN_POINT('Origin',(0.,-2.23517417907715E-7,7.5));
#324=UNCERTAINTY_MEASURE_WITH_UNIT(LENGTH_MEASURE(0.01),#328,
'DISTANCE_ACCURACY_VALUE',
'Maximum model space distance between geometric entities at asserted c
onnectivities');
#325=UNCERTAINTY_MEASURE_WITH_UNIT(LENGTH_MEASURE(0.01),#328,
'DISTANCE_ACCURACY_VALUE',
'Maximum model space distance between geometric entities at asserted c
onnectivities');
#326=(
GEOMETRIC_REPRESENTATION_CONTEXT(3)
GLOBAL_UNCERTAINTY_ASSIGNED_CONTEXT((#324))
GLOBAL_UNIT_ASSIGNED_CONTEXT((#328,#330,#331))
REPRESENTATION_CONTEXT('','3D')
);
#327=(
GEOMETRIC_REPRESENTATION_CONTEXT(3)
GLOBAL_UNCERTAINTY_ASSIGNED_CONTEXT((#325))
GLOBAL_UNIT_ASSIGNED_CONTEXT((#328,#330,#331))
REPRESENTATION_CONTEXT('','3D')
);
#328=(
LENGTH_UNIT()
NAMED_UNIT(*)
SI_UNIT(.MILLI.,.METRE.)
);
#329=(
LENGTH_UNIT()
NAMED_UNIT(*)
SI_UNIT($,.METRE.)
);
#330=(
NAMED_UNIT(*)
PLANE_ANGLE_UNIT()
SI_UNIT($,.RADIAN.)
);
#331=(
NAMED_UNIT(*)
SI_UNIT($,.STERADIAN.)
SOLID_ANGLE_UNIT()
);
#332=SHAPE_DEFINITION_REPRESENTATION(#333,#334);
#333=PRODUCT_DEFINITION_SHAPE('',$,#336);
#334=SHAPE_REPRESENTATION('',(#200),#326);
#335=PRODUCT_DEFINITION_CONTEXT('part definition',#340,'design');
#336=PRODUCT_DEFINITION('HW2979GC','HTD3M 15mm Belt Loop - 210mm v1',#337,
#335);
#337=PRODUCT_DEFINITION_FORMATION('',$,#342);
#338=PRODUCT_RELATED_PRODUCT_CATEGORY('HTD3M 15mm Belt Loop - 210mm v1',
'HTD3M 15mm Belt Loop - 210mm v1',(#342));
#339=APPLICATION_PROTOCOL_DEFINITION('international standard',
'automotive_design',2009,#340);
#340=APPLICATION_CONTEXT(
'Core Data for Automotive Mechanical Design Process');
#341=PRODUCT_CONTEXT('part definition',#340,'mechanical');
#342=PRODUCT('HW2979GC','HTD3M 15mm Belt Loop - 210mm v1',$,(#341));
#343=PRESENTATION_STYLE_ASSIGNMENT((#344));
#344=SURFACE_STYLE_USAGE(.BOTH.,#345);
#345=SURFACE_SIDE_STYLE('',(#346));
#346=SURFACE_STYLE_FILL_AREA(#347);
#347=FILL_AREA_STYLE('Rubber - Hard',(#348));
#348=FILL_AREA_STYLE_COLOUR('Rubber - Hard',#349);
#349=COLOUR_RGB('Rubber - Hard',0.152941176470588,0.152941176470588,0.152941176470588);
ENDSEC;
END-ISO-10303-21;
